Oops, an error
Loading. Please wait.

True Form Affection Bass Tab

10 views 1 this week
no commentswrite comment
1 2 3 4 5
3 more votes to show rating
add to favorites
launch autoscroll
font size
0
reset
guitar tuner
Autoscroll
slow
fast
+/-
esc
set tempo
stop
Help us to improve Ultimate-Guitar.com Take our survey!
×
Author
Difficulty
advanced
About this tab version
Its an original of our song. Was this info helpful? Yes No
[Verse]

G|------------------------------------------------------------------------|
D|------------------------------------------------------------------------|
A|------------------------------------------------------------------------|
E|5--5--5--5--5-5-5--5--5--5--5--5-5-5------------------------------------|
A|-------------------------------------7--7--7--7--7-7--5--5--5--5-5-7--8-|

G|------------------------------------------------------------------------|
D|------------------------------------------------------------------------|(X2)
A|------------------------------------------------------------------------|
E|5--5--5--5--5-5-5--5--5--5--5--5-5-5------------------------------------|
A|-------------------------------------7--7--7--7--7-7--5--5--5--7-7-8--7-|

G|-----------------------------------------------------------------------|
D|-----------------------------------------------------------------------|
A|------------3h5-3--------------3h5/7-----------------------------------|
E|5--5--5--5---------5--5--5--5------------------------------------------|
A|-------------------------------------7--7--7--7--7-7--5--5--7-8-10-8-7-|

G|------------------------------------------------------------------------|
D|------------------------------------------------------------------------|
A|------------------------------------------------------------------------|
E|5--5--5--5--5-5-5--5--5--5--5--5-5-5------------------------------------|
A|-------------------------------------7--7--7--7--7-7--5--5--5--7-7-8--7-|

G|-------------------------------------------------------------------------|
D|-------------------------------------------------------------------------|
A|------------3h5-3--------------3h5/7-------------------------------------|
E|5--5--5--5---------5--5--5--5--------------------8-10-8------------------|
A|-------------------------------------7--7--7--7---------5--5--7-8-10-8-7-|


[Chorus]

G|-----------------------------------------------------------------------------------------------------|
D|-----------------------------------------------------------------------------5h7-7--9-7--9-10--9-7--5|
A|---------------------------------------------------------------------3h5-7-5-------------------------|
E|5--5-5-5--5-5--5--5-5--5-5-5--5-5-5------------------------------3h5---------------------------------|
A|-------------------------------------5-5--5--5--5--5-5--7--7-7-7-------------------------------------|

G|---------------------------------------------------------------------------------------------------------|
D|---------------------------------------------------------------------------------------------------------|
A|---------------------------------------------------------------------------------------------------------|
E|5--5-5-5--5-5--5--5-5--5-5-5--5-5-5-------------------------------------8h10-10p8-10--8-10/12-12-10-10-8-|
A|------------------------------------5-5--5--5--5--5-5--7-7h10p7-7--10h12---------------------------------|

G|-----------------------------------------------------------------------------------------------------------|
D|-----------------------------------------------------------------------------------------------------------|
A|-----------------------------------------------------------------------------------------------------------|
E|7h8p7--5--5-5-5--5-5--5--5-5--5-5-5--5-5-5-----------------------------------------------------------------|
A|--------------------------------------------5-5--5--5--5--5-5--7--7--7-7-7--10-7--7--5h7--5--7--7--10--10--|

G|--------------------------------------------------------------------------------------------------|
D|--------------------------------------------------------------------------------------------------|
A|--------------------------------------------------------------------------------------------------|
E|---------------5--5-5-5--5-5--5--5-5--5-5-5--5-5-5------------------------------------------------|
A|13--13--11--9--------------------------------------5-5--5--5--5--5-5--7--7--7-7-7--7-7--7--7-7--7-|

G|------------------------------|
D|------------------------------|
A|------------------------------|
E|------------------------------|
A|5-5--5-5-5--5-5--5--5-5--5----|

[Breakdown]

G|-----------------------------------------------------------------------------------------------------|
D|-----------------------------------------------------------------------------------------------------|
A|-------------------5--5--5--5-5--5-5--5--3-3--3-3--3--3-5--5-5--5-0h1--1--1--1h3--3-3--3--3p0--0-0--0|
E|----6-6-6h8---5--------------------------------------------------------------------------------------|
A|-----------------------------------------------------------------------------------------------------|

G|----------------------------------------------------------------------------------------|
D|2h3-2-0--0--------7--5---7--5---------5--3--5---------3--2--3--2h3------3--2--3-5--5--5-|
A|-------3---0--5-5---5--5---5--0h3-3-3---3--3--0h1-1-1---1--1--1----0--0---0--0----------|
E|----------------------------------------------------------------------------------------|
A|----------------------------------------------------------------------------------------|

[Outro]

G|--------------------------------------------------------------------------------------|
D|----7--5---7-----------5---7---5-----------2---3---------------------------2h3p2------|
A|5-5---5--5---5-5--5-3-3--3---3---3-3--3-1-1--1---1-1--1-1--1--0--0-0--0-0--------3--3-|
E|--------------------------------------------------------------------------------------|
A|--------------------------------------------------------------------------------------|

G|---------------------------------------------------------------------------------------------------------|
D|--7----5------3-2---3-2-----7-5---5-3----3-2------------------7-5---5-3----3-2---3-2-----7-5---5-3----3-2|
A|5--5-3--3-0h1-----0-----0h5-----3----0h1-----0--0-0--0-0--0-5-----3----0h1-----0-----0-5-----3----0h1----|
E|---------------------------------------------------------------------------------------------------------|
A|---------------------------------------------------------------------------------------------------------|

G|---------------------------------------------------------------------------|
D|------------------7----5------3-2---3-2-----7-5---5-3----3-2---------------|
A|0--0-0--0-0--0--5--5-3--3-0h1-----0-----0h5-----3----0h1-----0--0-0--0-0--0|
E|---------------------------------------------------------------------------|
A|---------------------------------------------------------------------------|

G|--------------------------------------------------------------------------------------5h7----|
D|--7-5---5-3----3-2---3-2-----7-5---5-3----3-2--------3-2------------------7p5h-7p5h-7--------|
A|5-----3----0h1-----0-----0-5-----3----0h1----0--0-0------0---5--5--5--3h5--------------------|
E|---------------------------------------------------------------------------------------------|
A|---------------------------------------------------------------------------------------------|

************************************

| x   Dead note
| g   Grace note
| (n) Ghost note
| h   Hammer-on
| p   Pull-off
| r   Release
| >   Accented note
| t   Tapping
| b   Bend
| br  Bend release
| pb  Pre-bend
| pbr Pre-bend release
| /   Slide up
| \   Slide down
| ~   Vibrato
| s   Slap
| P   Pop
| PM  Palm mute
| TR  Trill
| N   Tremolo

************************************
Suggest correction
Give kudos to tab author, rate the tab!
1 2 3 4 5
comments
print report bad tab
guest
You may want to rate the tab now too:
select rating
Wanna post a correction for this tab? Suggest correction