Oops, an error
Loading. Please wait.

True From Affection Tab

4 views 1 this week
no commentswrite comment
1 2 3 4 5
3 more votes to show rating
add to favorites
launch autoscroll
font size
0
reset
how to read this tab
guitar tuner
Autoscroll
slow
fast
+/-
esc
set tempo
stop
Help us to improve Ultimate-Guitar.com Take our survey!
×
Author
Difficulty
intermediate
About this tab version
Its an original of our song. Was this info helpful? Yes No
[Intro]
e|5--5-5-x-5--5-5-x-x-5-x-x--5--5-5-x-5--5-5-x-x-5-x-x----------------------------------------------------|
B|5--5-5-x-5--5-5-x-x-5-x-x--5--5-5-x-5--5-5-x-x-5-x-x----------------------------------------------------| x3
G|5--5-5-x-5--5-5-x-x-5-x-x--5--5-5-x-5--5-5-x-x-5-x-x-7--7-7-x-7--7-7-x-x-7-x-x-5--5-5--5-5--5-5--5-5-x-x|
D|5--5-5-x-5--5-5-x-x-5-x-x--5--5-5-x-5--5-5-x-x-5-x-x-5--5-5-x-5--5-5-x-x-5-x-x-3--3-3--3-3--3-3--3-3-x-x|
A|7--7-7-x-7--7-7-x-x-7-x-x--7--7-7-x-7--7-7-x-x-7-x-x-7--7-7-x-7--7-7-x-x-7-x-x-5--5-5--5-5--5-5--5-5-x-x|
E|5--5-5-x-5--5-5-x-x-5-x-x--5--5-5-x-5--5-5-x-x-5-x-x----------------------------------------------------|

[Verse]
e|5--5-5-x-5--5-5-x-x-5-x-x--5--5-5-x-5--5-5-x-x-5-x-x----------------------------------------------------|
B|5--5-5-x-5--5-5-x-x-5-x-x--5--5-5-x-5--5-5-x-x-5-x-x----------------------------------------------------| x5
G|5--5-5-x-5--5-5-x-x-5-x-x--5--5-5-x-5--5-5-x-x-5-x-x-7--7-7-x-7--7-7-x-x-7-x-x-5--5-5--5-5--5-5--5-5-x-x|
D|5--5-5-x-5--5-5-x-x-5-x-x--5--5-5-x-5--5-5-x-x-5-x-x-5--5-5-x-5--5-5-x-x-5-x-x-3--3-3--3-3--3-3--3-3-x-x|
A|7--7-7-x-7--7-7-x-x-7-x-x--7--7-7-x-7--7-7-x-x-7-x-x-7--7-7-x-7--7-7-x-x-7-x-x-5--5-5--5-5--5-5--5-5-x-x|
E|5--5-5-x-5--5-5-x-x-5-x-x--5--5-5-x-5--5-5-x-x-5-x-x----------------------------------------------------|

e|5--5-5-x-5--5-5-x-x-5-x-x--5--5-5-x-5--5-5-x-x-5-x-x----------------------------------------------------|
B|5--5-5-x-5--5-5-x-x-5-x-x--5--5-5-x-5--5-5-x-x-5-x-x----------------------------------------------------|
G|5--5-5-x-5--5-5-x-x-5-x-x--5--5-5-x-5--5-5-x-x-5-x-x-7--7-7-x-7--7-7-x-x-7-x-x-5--5-5--5-5--5-5--5-5--5-|
D|5--5-5-x-5--5-5-x-x-5-x-x--5--5-5-x-5--5-5-x-x-5-x-x-5--5-5-x-5--5-5-x-x-5-x-x-3--3-3--3-3--3-3--3-3--3-|
A|7--7-7-x-7--7-7-x-x-7-x-x--7--7-7-x-7--7-7-x-x-7-x-x-7--7-7-x-7--7-7-x-x-7-x-x-5--5-5--5-5--5-5--5-5--5-|
E|5--5-5-x-5--5-5-x-x-5-x-x--5--5-5-x-5--5-5-x-x-5-x-x----------------------------------------------------|

[Chorus]
e|5--5-5-x-5--5-5--x-5-x-x--5--5-5-x----------------------------------------------------------------------|
B|5--5-5-x-5--5-5--x-5-x-x--5--5-5-x--------------------------------------------------------------------- | x2
G|5--5-5-x-5--5-5--x-5-x-x--5--5-5-x-5--5-5-x-x-5-x-x-7--7-7--7-7--7-7--7-7--7-7-7--7-7--5--5-5--5-5--x-x-|
D|5--5-5-x-5--5-5--x-5-x-x--5--5-5-x-3--3-3-x-x-3-x-x-5--5-5--5-5--5-5--5-5--5-5-5--5-5--3--3-3--3-3--x-x-|
A|7--7-7-x-7--7-7--x-7-x-x--7--7-7-x-5--5-5-x-x-5-x-x-7--7-7--7-7--7-7--7-7--7-7-7--7-7--5--5-5--5-5--x-x-|
E|5--5-5-x-5--5-5--x-5-x-x--5--5-5-x----------------------------------------------------------------------|

e|----8h10h12--------8h10p8-7------8h10h12------8h10p8-7-------8h10h12------8h10p8-7--8h10-10-8p7-7--5-5-3-5|
B|8-10--------8-8-10---------8-8-10-------8-8-10--------8-8-10--------8-8-10--------------------------------|
G|----------------------------------------------------------------------------------------------------------|
D|----------------------------------------------------------------------------------------------------------|
A|----------------------------------------------------------------------------------------------------------|
E|----------------------------------------------------------------------------------------------------------|

e|----8h10h12--------8h10p8-7------8h10h12------8h10p8-7------8h10h12----------------------------------------|
B|8-10--------8-8-10---------8-8-10-------8-8-10--------8-8-10-----------------------------------------------|
G|-------------------------------------------------------------------7--7-7-x-x-7-x-x-5--5-5--5-5--5-5--5-5-5|
D|-------------------------------------------------------------------5--5-5-x-x-5-x-x-3--3-3--3-3--3-3--3-3-3|
A|-------------------------------------------------------------------7--7-7-x-x-7-x-x-5--5-5--5-5--5-5--5-5-5|
E|-----------------------------------------------------------------------------------------------------------|

[Bridge] x4                                          
e|------------------------------------------------------1---1--1--1-1--1-1--1--x-x--x-x--x--x-x--x-x--x--x-x|
B|6--6--6--5-5--5-5--5--5-5-5-5--5--5--5-5--5-5--5--x-x-1h2-2--2--2-2--1-1--1--2-2--2-2--2--3-3--5-5--5--x-x|
G|5--5--5--5-5--5-5--5--0-0-0-0--0--0--0-0--0-0--0--x-x-0---0--0--0-0--0-0--0--x-x--x-x--x--x-x--x-x--x--x-x|
D|3--3--3--3-3--3-3--3--0-0-0-0--0--0--0-0--0-0--0--x-x-0---0--0--0-0--0-0--0--2-2--2-2--2--2-2--2-2--2--x-x|
A|5--5--5--5-5--5-5--5--3-3-3-3--3--3--3-3--3-3--3--x-x-1---1--1--1-1--1-1--1--0-0--0-0--0--0-0--0-0--0--x-x|
E|------------------------------------------------------x---x--x--x-x--x-x--x--x-x--x-x--x--x-x--x-x--x--x-x|

[Outro]
e|---------------------1--1---1-1---1-x-x--x-x--x--x-x-|
B|5--5--5--5-5--5-5--5-1--1h2-2-2p1-1-2-2--2-2--2--x-x-| x6
G|5--5--5--0-0--0-0--0-0--0---0-0---0-x-x--x-x--x--x-x-|
D|3--3--3--0-0--0-0--0-0--0---0-0---0-2-2--2-2--2--x-x-|
A|5--5--5--3-3--3-3--3-1--1---1-1---1-0-0--0-0--0--x-x-|
E|------------------------------------x-x--x-x--x--x-x-|

e|12h13p12-10--10--8--8-7-8--8--12h13p12-10--10--8--7--7-5--7-7h8-7-5-3--5-5h7-5-3-1-3--5-5-5-5-5-5-5-5-5-5-5|
B|-----------------------------------------------------------------------------------------------------------|
G|-----------------------------------------------------------------------------------------------------------|
D|-----------------------------------------------------------------------------------------------------------|
A|-----------------------------------------------------------------------------------------------------------|
E|-----------------------------------------------------------------------------------------------------------|

e|5-5--5--5--5--5--5----|
B|--5--5--5--5--5--5----|
G|--5--5--5--5--5--5----|
D|--3--3--3--3--3--3----|
A|--5--5--5--5--5--5----|
E|----------------------|

 
************************************

| x  Dead note
| h  Hammer-on
| p  Pull-off

************************************
Suggest correction
Give kudos to tab author, rate the tab!
1 2 3 4 5
comments
print report bad tab
guest
You may want to rate the tab now too:
select rating
Wanna post a correction for this tab? Suggest correction