Oops, an error
Loading. Please wait.

Here I Am Tab

version 1
version 1

Whole song

Interactive

by Soja
54,298 views 150 this week
2 commentsread comments
1 2 3 4 5
excellent!
x 13
add to favorites
launch autoscroll
font size
0
reset
how to read this tab
guitar tuner
Tab Pro tools
  • play this tab
  • loop segment
  • change instrument
  • show fretboard
  • metronome
×
Best way to learn
"Here I Am"
Autoscroll
slow
fast
+/-
esc
set tempo
stop
Difficulty
novice
     Here I Am - Soja
-------------------------------------------------------------------------------
Tabbed by:Cody
Email:

Tuning:Standard

e|---------------------------------------------------------------------|
B|---------------------7-----------------------------------------------|
G|---7---7---9-7-----7---7---7-77h9-9-7-6------------------------------|
D|-9---9---9-----9-9-------9--------------9----------------------------|
A|---------------------------------------------------------------------|
E|---------------------------------------------------------------------|

e|---------------------------------------------------------------------|
B|-----------10-8-------7----------------------------------------------|
G|---7---7--------7---7---7---7-7h9-9-7-6------------------------------|
D|-9---9---9--------9-------9-------------9----------------------------|
A|---------------------------------------------------------------------|
E|---------------------------------------------------------------------|

Chords: Bm x24432, G 355433, D x57775, A 577655 .. Played throughout entire song

Bm                 G           D          A
She calls me when I'm in town, I pretend I'm not around
comments
print report bad tab
2 comments total.
0 reply
npeter385 wrote on March 4 2010, 12:41 am

hey man, i like your tab. but ive been screwing around with it, and i think the end of each riff is a little off (after the 7,7,7,9 sequence in the middle). but after experimenting a little, i think i corrected it. not sure hough but see what you think
e|----------------------------------------------------------
B|---------------------7----------7-------------------------
G|---7---7---9-7-----7---7---7-7h9--7-6---------------------
D|-9---9---9-----9-9-------9--------------9-----------------
A|----------------------------------------------------------
E|----------------------------------------------------------

e|----------------------------------------------------------
B|-----------10-8-------7----------7------------------------
G|---7---7--------7---7---7---7-7h9--7-6--------------------
D|-9---9---9--------9-------9-------------9-----------------
A|----------------------------------------------------------
E|----------------------------------------------------------

0 reply
Lem182 wrote on August 30 2013, 09:28 am

This is a good tab, but it doesn't sound quite right to me. After playing around a bit, I think I got it right. I might be wrong, but sounds right when I play along to it. (This is my first time tabbing, so dont know how its going to come out)

e|----------------------------------------------------------
B|---------------------7---------------7--------------------
G|---7---7--7-9-7-----7---7---7--7-7h9---7h9-7p6------------
D|-9---9---------9--9-------7-------------------------------
A|----------------------------------------------------------
E|----------------------------------------------------------

e|----------------------------------------------------------
B|-----------10-8-------7-------------7---------------------
G|---7---7-7------7---7---7---7-7-7h9---7h9-7p6-------------
D|-9---9------------9-------7-------------------------------
A|----------------------------------------------------------
E|----------------------------------------------------------

e|----------------------------------------------------------
B|---------------------7---------------7--------------------
G|---7---7--7-9-7-----7---7---7--7-7h9---7h9-7p6------------
D|-9---9---------9--9-------7-------------------------------
A|----------------------------------------------------------
E|----------------------------------------------------------

e|----------------------------------------------------------
B|-----------10-8-------7-----------------------------------
G|---7---7-7------7---7---7---7-7-7h9-6---------------------
D|-9---9------------9-------7-------------------------------
A|----------------------------------------------------------
E|----------------------------------------------------------

I want to post or [tab]
guest
You may want to rate the tab now too:
select rating
Please do not post tabs as comments. Select "correction" instead!