Oops, an error
Loading. Please wait.

Mentality bass

by Soja
34 views 6 this week
no commentswrite comment
1 2 3 4 5
3 more votes to show rating
add to favorites
×
Save as Personal and add changes to this tab that will be seen only by you. Learn more ›
×
You can save this tab as Personal to edit and correct it or add notes. All changes will be seen only by you. Learn more »
launch autoscroll
font size
0
reset
guitar tuner
edit
Autoscroll
slow
fast
+/-
esc
set tempo
stop
This tab isn't 100% and i will go back and edit it when i figure out more of the song
It sounds like the bass lines should be similar to what i have tabbed out may be missing
a few notes or have extra so just listen for timing until i can figure out the rest note for note

[Intro] (2x)
G|---------------------------------------------------------------------------|
D|----------7-9-7----7---------------------7-9-7----7------------------------| 
A|--7--7-10-------10---10-7--5-7-5-7--7-10-------10---10-7--5-7-5------------|
E|---------------------------------------------------------------------------|

G|---------------------------------------------------------------------------|
D|----------7-9-7----7-------------------------------------------------------|
A|--7--7-10-------10---10-7--5-7-5-7--7-7-5-7--------------------------------|
E|---------------------------------------------------------------------------|

[Verse] (2x)
G|---------------------------------------------------------------------------|
D|----------7-9-7----7---------------------7-9-7----7------------------------| 
A|--7--7-10-------10---10-7--5-7-5-7--7-10-------10---10-7--5-7-5------------|
E|---------------------------------------------------------------------------|

G|---------------------------------------------------------------------------|
D|----------7-9-7----7-------------------------------------------------------|
A|--7--7-10-------10---10-7--5-7-5-7--7-7-5-7--------------------------------|
E|---------------------------------------------------------------------------|

[Chorus] (2x )
[Truth and right is yours to control now...]
G|---------------------------------------------------------------------------|
D|---------------------------------------------------------------------------|
A|-----------------------7--7-7-----10-12-10---10----------------------------|
E|--8--8-8---10--10-10-----------------------12---12-10----------------------|

[Instrumental]
G|---------------------------------------------------------------------------|
D|----------7-9-7----7---------------------7-9-7----7------------------------| 
A|--7--7-10-------10---10-7--5-7-5-7--7-10-------10---10-7--5-7-5------------|
E|---------------------------------------------------------------------------|

G|---------------------------------------------------------------------------|
D|----------7-9-7----7-------------------------------------------------------|
A|--7--7-10-------10---10-7--5-7-5-7--7-7-5-7--------------------------------|
E|---------------------------------------------------------------------------|

[Verse] (2x)
G|---------------------------------------------------------------------------|
D|----------7-9-7----7---------------------7-9-7----7------------------------| 
A|--7--7-10-------10---10-7--5-7-5-7--7-10-------10---10-7--5-7-5------------|
E|---------------------------------------------------------------------------|

G|---------------------------------------------------------------------------|
D|----------7-9-7----7-------------------------------------------------------|
A|--7--7-10-------10---10-7--5-7-5-7--7-7-5-7--------------------------------|
E|---------------------------------------------------------------------------|

[Chorus] (4x)
[Truth and right is yours to control now...]
G|---------------------------------------------------------------------------|
D|---------------------------------------------------------------------------|
A|-----------------------7--7-7-----10-12-10---10----------------------------|
E|--8--8-8---10--10-10-----------------------12---12-10----------------------|

[Instrumental]
G|---------------------------------------------------------------------------|
D|----------7-9-7----7---------------------7-9-7----7------------------------| 
A|--7--7-10-------10---10-7--5-7-5-7--7-10-------10---10-7--5-7-5------------|
E|---------------------------------------------------------------------------|

G|---------------------------------------------------------------------------|
D|----------7-9-7----7-------------------------------------------------------|
A|--7--7-10-------10---10-7--5-7-5-7--7-7-5-7--------------------------------|
E|---------------------------------------------------------------------------|

[Chorus]
[Truth and right is yours to control now...]
G|---------------------------------------------------------------------------|
D|---------------------------------------------------------------------------|
A|-----------------------7--7-7-----10-12-10---10----------------------------|
E|--8--8-8---10--10-10-----------------------12---12-10----------------------|
Suggest correction
Creating personal tab
Creating personal tab
You can edit any tab online and save it as your Personal.

You can edit, replace or remove any tab part or add personal notes – all changes will be seen only by you.

Personal tabs can be accessed anytime from any device, even offline.
Learn more »
Give kudos to tab author, rate the tab!
1 2 3 4 5
comments
print report bad tab
guest
You may want to rate the tab now too:
select rating
Wanna post a correction for this tab? Suggest correction