Oops, an error
Loading. Please wait.

She Still Loves Me tab

by Soja
2,251 views 24 this week
no commentswrite comment
1 2 3 4 5
2 more votes to show rating
add to favorites
×
Save as Personal and add changes to this tab that will be seen only by you. Learn more ›
×
You can save this tab as Personal to edit and correct it or add notes. All changes will be seen only by you. Learn more »
launch autoscroll
font size
0
reset
how to read this tab
guitar tuner
edit
Autoscroll
slow
fast
+/-
esc
set tempo
stop
Artist:Soja
Song:She Still Loves Me
Album:Strength to Survive

Chords Used

     A      B      F#m    A   
e|---5------5------5------5------------|
B|---5------7------7------5------------|
G|---6------7------7------6------------|
D|---7------7------7------7------------|
A|---7------5------5------7------------|
E|---5--------------------5------------|


[Intro] 2x 

This part might be missing a note or two but It's a close enough guideline.

Guitar 1

e|---7--5-----7--5--------7--5---------7--5------------|
B|-5--------5------7---5--------7---5--------7-10------|
G|------------------------------------------------9----|
D|-----------------------------------------------------|
A|-----------------------------------------------------|
E|-----------------------------------------------------|


[Intro]

Guitar 2 - It is similar to this but I don't think this is 100% correct..

e|--------------------------------------------------------------------------------|
B|--------------------------------------------------------------------------------|
G|--------------------------------------------------------------------------------|
D|-------------------------------------------77-----77----------------------------|
A|-------77-0---77-0-------44-0---44-0--5-55----0-5---0-------77-0--77-0----------|
E|--5-55------5-------2-22------2------------------------5-55------5--------------|

Listen for strumming patterns the chords should be correct.


[Verse]

             A                 F#m                           D                       A
I know It's hard now for you to see you can't change how It was or how It's going to be 
              A                      F#m                          D                   A
I'm what she wants your just what she needs and If she still loves me she still loves me where 
         A                       F#m                      D                      A 
Is her sweater It's not in her car It's not at her friends house It's not at the bar I think you
   A                 F#m                         D                               A
better think with the heart take a look at yourself and see how lucky you really are 
           A                  F#m                 D                   A                   A  
I don't believe In luck after all neither does she but you know that now you should forget her 
                   F#m                   D                     A                    A
cause I've got her heart she hates the way that I tear It all apart


[Chorus/Verse 2]

                 A                F#m                           D                      A                A
 I know It's hard now for you to see you can't change how It was or how It's going to be I'm what she wants
                  F#m            D              A                A               F#m
your just what she needs well she still loves me she still loves me what did she do today that took her so 
  D                 A                     A                  F#m                           D
long where has she been to where has she gone what does she think about when she sees the dawn and you feel 
     A               A                        F#m                          D
her thinking and rolling around what does she talk about when her father calls she says what you said she 
 A              A                          F#m                         D              A
says that you're the one what does she talk about when her mother calls you don't come up 
                    A
you don't come up at all 


[Intro Riff] 

Guitar 1

e|---7--5-----7--5--------7--5---------7--5------------|
B|-5--------5------7---5--------7---5--------7-10------|
G|------------------------------------------------9----|
D|-----------------------------------------------------|
A|-----------------------------------------------------|
E|-----------------------------------------------------|

[Intro Riff]

Guitar 2

e|--------------------------------------------------------------------------------|
B|--------------------------------------------------------------------------------|
G|--------------------------------------------------------------------------------|
D|-------------------------------------------77-----77----------------------------|
A|-------77-0---77-0-------44-0---44-0--5-55----0-5---0-------77-0--77-0----------|
E|--5-55------5-------2-22------2------------------------5-55------5--------------|


[Bridge/Chorus 2]

            A                F#m                                  D                A
What do we do when life takes us so long while we waste so much time, I know 
                        A                     F#m                  D                        A          
I'll never know why do we stay here? Why don't we go? Why does everybody think that they can do
                     A                  F#m                        D                       A
both? I know It's hard now for you to see you can't change how It was or how It's going to be 
              A                       F#m                         D                       A
I'm what she wants your just what she needs and If she still loves me yeah she still loves me 
              A                 F#m                           D                         A
I know It's hard now for you to see cause you can't change a thing about how It used to be
                   A                            F#m                    D           
and I'm what she wants and you are just what she needs she still loves me and she still 
       A           
loves me, she still loves me


[Outro Riff]

e|-----------------------------|
B|-----------------------------|
G|-----------------------------|
D|-----------------------------|
A|-------7-7-------------------|
E|--5-55--5--5-55--5-4-5-------|
Suggest correction
Creating personal tab
Creating personal tab
You can edit any tab online and save it as your Personal.

You can edit, replace or remove any tab part or add personal notes – all changes will be seen only by you.

Personal tabs can be accessed anytime from any device, even offline.
Learn more »
Give kudos to tab author, rate the tab!
1 2 3 4 5
comments
print report bad tab
guest
You may want to rate the tab now too:
select rating
Wanna post a correction for this tab? Suggest correction