Oops, an error
Loading. Please wait.

You And Me Tab

version 1
version 1

Intro

by Soja
11,778 views 9 this week
1 commentread comment
1 2 3 4 5
excellent!
x 5
add to favorites
launch autoscroll
font size
0
reset
how to read this tab
guitar tuner
Autoscroll
slow
fast
+/-
esc
set tempo
stop
Help us to improve Ultimate-Guitar.com Take our survey!
×
Author
Difficulty
novice
You and Me-SOJA (Credit to my friend Will who started me off)
Please let me know if there are corrections/or a better sounding way. THX

intro/verse break/& outro (aka: the violin sounding part)


e|-----0--7--5--3-|-0h3----|0--7--5--3-|3--4--5------------------|
B|----------------|-------3|-----------|-------------------------|
G|----------------|--------|-----------|-------------------------|
D|----------------|--------|-----------|-------------------------|
A|----------------|--------|-----------|-------------------------|
E|----------------|--------|-----------|-------------------------|


e|0--12--10--9--10--9--7--3--3h4--5|-----0--7--5--3-|-0h3----|
B|---------------------------------|----------------|-------3|
G|---------------------------------|----------------|--------|
D|---------------------------------|----------------|--------|
A|---------------------------------|----------------|--------|
E|---------------------------------|----------------|--------|
Suggest correction
comments
print report bad tab
1 comment total.
+3 reply
mrishi 10 wrote on November 4 2011, 03:50 am

what's up man, you can also try play it like this. either way's good.

e|-----0--7--5--3-|-0h3----|0--7--5--3-|2--3--5------------------|
B|----------------|-------3|-----------|-------------------------|
G|----------------|--------|-----------|-------------------------|
D|----------------|--------|-----------|-------------------------|
A|----------------|--------|-----------|-------------------------|
E|----------------|--------|-----------|-------------------------|

e|0--10--8--7--8--7--5--2h3---5---|-----0--7--5--3-|-0h3----|
B|---------------------------------|----------------|-------3|
G|---------------------------------|----------------|--------|
D|---------------------------------|----------------|--------|
A|---------------------------------|----------------|--------|
E|---------------------------------|----------------|--------|

guest
You may want to rate the tab now too:
select rating
Please do not post tabs as comments. Select "correction" instead!