Oops, an error
Loading. Please wait.

Ill Kill Her Tab

version 2
version 2

Solo

Whole song

Interactive

by SoKo
6,458 views 1 this week
1 commentread comment
1 2 3 4 5
2 more votes to show rating
add to favorites
launch autoscroll
font size
0
reset
how to read this tab
guitar tuner
Autoscroll
slow
fast
+/-
esc
set tempo
stop
Help us to improve Ultimate-Guitar.com Take our survey!
×
Author
Difficulty
novice
Ladies & Gentlemen...
This is the correct and most easy way to play the solo:

e|-10-10-10-10-10-10-10-10-10h11-11-11-11-11-10--------------------|
B|----------------------------------------------13-11--------11-13-|
G|----------------------------------------------------12--10-------|
D|-----------------------------------------------------------------|
A|-----------------------------------------------------------------|
E|-----------------------------------------------------------------|

e|-----------------------------------------------------------------------|
B|-----------------------------------------------------------------------|
G|-10-12-10----------------------------------------------10-12--13-12-10-|
D|----------13-12-10-12-13-13-10h12h13-10h12h13-10h12h13-----------------|
A|-----------------------------------------------------------------------|
E|-----------------------------------------------------------------------|

More to come...
Corrections or feed-back: 1907cc@gmail.com
Suggest correction
Give kudos to tab author, rate the tab!
1 2 3 4 5
comments
print report bad tab
1 comment total.
0 reply
Lunasco_23 187 Nov 13, 2012 03:35 PM

Note-for-note perfect. Thank you

guest
You may want to rate the tab now too:
select rating
Wanna post a correction for this tab? Suggest correction