Oops, an error
Loading. Please wait.

Ill Kill Her Tab

version 1
version 1

Whole song

Interactive

by SoKo
98,364 views 42 this week
5 commentsread comments
1 2 3 4 5
accurate
x 14
add to favorites
launch autoscroll
font size
0
reset
how to read this tab
guitar tuner
Tab Pro tools
  • play this tab
  • loop segment
  • change instrument
  • show fretboard
  • metronome
×
Best way to learn
"Ill Kill Her"
Autoscroll
slow
fast
+/-
esc
set tempo
stop
Contributor
Difficulty
Capo
intermediate
3rd fret
Soko - I'll Kill Her Guitar Tab
Tabbed by Christopher Nordberg

Tuning: Standard
Capo: 3rd fret
Chords: Am F C G

Chords and tabs are relative to capo.

Slide to = s
Slide up = /
Slide down = \
Let ring = ~
Hammer = h
Pull-off = p
Mute = x
Bend = b
Palm muted = ¨
Up stroke = U
Down stroke = D
Vibrato = v

Intro:
   Am   F  C       G         Am      F
e|-----------------------------------------------|
B|-----------------------------------------------|
G|-----------5-----4-----------5-2s4~~~s2--------|
D|---2---------5---5---7s5-3-2-------------------|
A|-0-------3-----3-------------------------------|
E|------1----------3-----------------1-----------|

So of course, you were supposed to call me tonight
   Am    F    C     G 
e|-----------------------------------------------|
B|---1------------1------------------------------|
G|---2-------------------------------------------|
D|-------2s3--2----------------------------------|
A|-0-------------3----2x-2b3b2-------------------|
E|-----------------------------3-----------------|

You were supposed to call me tonight... cinema...
We would have slept together...
   Am   F    C      G   Am   F  C        G
e|-----------------------------------------------|
B|---1--------------8---------------1------------|
G|---2----2--5------------------------0--4-------|
D|--------3----5--------2-2-----0h2------------0-|
A|-0---------3---3------0-------------------0h2--|
E|------1--------------------1-------------------|

You would have said i love you...
I would have waited, like a week or two...
   Am   F    C    G        Am    F    C        G
e|----------------7¨-------------------------------|
B|------------------8¨---------1----------1------3-|
G|--------------------7¨--------------------0------|
D|-2-2--3----5-------------0h2---2h3--3h4------3---|
A|-0----3-3--3-3-----------------------------------|
E|------1-1----------------------------------------|

You were dating that bitch from town...
   Am   F      C        G
e|-----------------------------------------------|
B|---1------1------------------------------------|
G|---2------2------------------------------------|
D|------2h3------0h2-0---------------------------|
A|-0-----------3----------0h2--------------------|
E|----------------------3------------------------|

I'll kill her, i'll kill her...
   Am    F       C     G       Am     F          C    G
e|----3----3-------------------------------------------------|
B|-1--1------1-----1---------------1------1--------1---------|
G|-2----------2----0---4-2-0------------------0----0--4-2-0--|
D|-------3-------2-2---------3-0h2----2h3---3----------------|
A|-0-------------3-------------------------------3-----------|
E|-----------------------------------------------------------|

I would have met your friends... 
I would have met your dad...
   Am                 F             C                    G
e|------------------------------------------12---------------------------|
B|----10---12x-10-------6---8x-6------13------15p13---------8---10x-8----|
G|-------9-------9--------5-----5--------12--------12---------7------7---|
D|-----------------------------------------------------------------------|
A|-12-------------12\-8----------8--15---------------15--10-----------10-|
E|-----------------------------------------------------------------------|
Repeat 2 times. Second time with some variation.

So we would have had a boy...
   Am                 F             C               F  
e|-----------------------------------------------------------------------|
B|----10---12x-10-------6---8x-6----------------------6---8h6-6----------|
G|-------9-------9--------5-----5-----9-----------------5------5---------|
D|--------------------------------------11-------------------------------|
A|-12-------------12\-8----------8---------13-9-13--8-----------8--------|
E|----------------------------------8------------------------------------|
Note: Ends in F

I thought it was a love story...
   Am                 F             C                    G
e|------------------------------------------12-------------3~--3-3-3-3-3x--|
B|----10---12x-10-------6---8x-6------13------15p13------------3-3-3-3-3x--|
G|-------9-------9--------5-----5--------12--------12----------4-4-4-4-4x--|
D|-------------------------------------------------------5~----5-5-5-5-5x--|
A|-12-------------12\-8----------8--15---------------15--------5-5-5-5-5x--|
E|-------------------------------------------------------------3-3-3-3-3x--|
                                                               D U D U D
Me neither, i'll kill her...
I'll kill her, I'll kill her...
   Am     F      C           G        Am     F            C    G
e|---3------------------------------------------------------------------|
B|-1---1----1--------1-1-1----------------1------1----------1-----------|
G|-2------0---0-----------0--4-2-0-------------------0------0--4-2-0----|
D|--------3------0h2---2-----------3--0h2----2h3---3---3--2----------3--|
A|-0------3------------3------------------------------------------------|
E|----------------------------------------------------------------------|

   Am       F       C      G       Am    F                C         G
e|-----3------3---------3--------------------------------------------------|
B|-----1-1----1-1p0-0h1-1--------------1-----1---1---1h3p1-------1-0--8-6-5|
G|----------0--------------4-2-0-------------------------------0------7----|
D|-0h2---------------------------3-0h2---2h3---3---3-------0h2-------------|
A|-------------------------------------------------------------------------|
E|-------------------------------------------------------------------------|

She's a bitch you know...
She'll dumb your eyes for a model...
   Am       F      C    G                Am   F         C     G
e|----------------------------------------------------------------|
B|-----------------1--------8---6---5-------1-----1-------1---8v--|
G|-------------------0--7s9---7---5---4-------------------0---7v--|
D|-0h2x-2x--3x-3x--2---------------------2x---2h3---2-3-----------|
A|-0--x-0x--3x-3x--3---------------------0x-------------3---------|
E|----------1x-1x-------------------------------------------------|

I would have waited...
You were dating...
   Am    F            C         G            Am    F       C        G
e|-----------------------0-------------------------------------------------|
B|---1----1------------1---1-----1-3-1------------------------1------------|
G|------0-----0------------------------4-0----------------------0----------|
D|0h2-------3---3--2h3-------3h4------------2x-2x-3x--3x--2h3------5x-5x-5x|
A|------------------------------------------0x-0x-3x--3x-----------5x-5x-5x|
E|------------------------------------------------1x--1x-----------3x-3x-3x|

I'll kill her, I'll kill her...
I'll kill her, I'll kill her...
   Am     F        C          G       Am       F        C      G
e|---3----------3--------3------------------3--------3------3-----------|
B|-1---1--0h1------0h1-----1----------0h1------0h1------0h1-------------|
G|----------------------------4-2-0-------2--------------------4-2-0----|
D|-2----------3--------2----0-------3--------------3-----------------3--|
A|-0--------------------------------------------------------------------|
E|----------------------------------------------------------------------|
Repeat once with a little variation...

Solo:
   Am                         F                       C
e|-10-10-10-10-10-10-10-10-10h11-11-11-11-11-10--------------------|
B|----------------------------------------------13-11--------11-13-|
G|----------------------------------------------------12--10-------|
D|-----------------------------------------------------------------|
A|-----------------------------------------------------------------|
E|-----------------------------------------------------------------|
   G                 Am              F                      C         G
e|-----------------------------------------------------------------------|
B|-----------------------------------------------------------------------|
G|-10-12-10----------------------------------------------10-12--13-12-10-|
D|----------13-12-10-12-13-13-10h12h13-10h12h13-10h12h13-----------------|
A|-----------------------------------------------------------------------|
E|-----------------------------------------------------------------------|

Corrections or comments: 1907cc@gmail.com
Please vote!
comments
print report bad tab
5 comments total. Showing first comments.
0 reply
Willum wrote on September 1 2007, 09:07 am

brillaint been wanting some soko tabs for aages.. saw them live was trying to figure out what he was playing the got bored and had a merry jig instead.

keep them coming, shitty day would be awesome as would wet dreams well all of them would be keep it up :)

+2 reply
glugger wrote on March 15 2008, 04:54 am

just wondering about the lyrics, "she'll dumb your eyes for a model"
shouldn't it be " she'll dump your ass for a model"? just that it makes more sense

0 reply
skimmer wrote on July 3 2008, 10:01 am

i'm gonna make a metalcore version of this song, should be reasonably easy.
hmm........

I want to post or [tab]
guest
You may want to rate the tab now too:
select rating
Please do not post tabs as comments. Select "correction" instead!