Oops, an error
Loading. Please wait.

We Might Be Dead By Tomorrow Tab

version 1
version 1

Whole song

by SoKo
17,437 views 48 this week
4 commentsread comments
1 2 3 4 5
accurate
x 9
add to favorites
launch autoscroll
font size
0
reset
how to read this tab
guitar tuner
Autoscroll
slow
fast
+/-
esc
set tempo
stop
Help us to improve Ultimate-Guitar.com Take our survey!
×
Author
Difficulty
Intro

e|7-7-7-7-7-7-7/8-8-8/7-7-7-7-7-7-7/8-8-8/7-7-7-7-7-7-7/8-8-8/7|---|
B|-----------------------------------------------------------------|
G|-----------------------------------------------------------------|
D|-----------------------------------------------------------------|
A|-----------------------------------------------------------------|
E|-----------------------------------------------------------------|

e|7-7-7-7-7-7-7-7-7-7-7-7-7-7-7/8-8-8/7-7-7-7-7-7-7/8-8-8/7-7------|
B|-----------------------------------------------------------------|
G|-----------------------------------------------------------------|
D|-----------------------------------------------------------------|
A|-----------------------------------------------------------------|
E|-----------------------------------------------------------------|

e|7/12-12-12/10-10-10/8-8-8/7-7------------------------------------|
B|-----------------------------------------------------------------|
G|-----------------------------------------------------------------|
D|-----------------------------------------------------------------|
A|-----------------------------------------------------------------|
E|-----------------------------------------------------------------|


It's pretty much the same, with small variations, except for the part right after she 
sings, "'Cause she didn't have time". There, it's:

e|-----------------------------------------------------------------|
B|-----------------------------------------------------------------|
G|12-12-12-12-12-12-12-12-12-12-12-12-12-12-12-12------------------|
D|-----------------------------------------------------------------|
A|-----------------------------------------------------------------|
E|-----------------------------------------------------------------|

Lyrics:

Give me all your love now
'Cause for all we know
We might be dead by tomorrow
I count
Going wasting my time
Adding scars to my heart
'Cause all I hear is
"I'm not ready now"
And I can tell
That you didn't have
To face your mother
losing her lover
Without saying goodbye
Without saying goodbye
'Cause she didn't have time
I don't want to judge
What's in your heart
But if you're not ready for love
How can you be ready for life?
How can you be ready for life?
So let's love fully
And let's love loud
Let's love now
'Cause soon enough we'll die
'Cause soon enough we'll die
'Cause soon enough we'll die
'Cause soon enough we'll die
'Cause soon enough we'll die
'Cause soon enough we'll die
Suggest correction
comments
print report bad tab
4 comments total. Showing first comments.
0 reply
ivarvanwooning 35 wrote on March 23 2014, 08:31 am, edited at 08:36 am

You're missing the bass note.

0 reply
ivarvanwooning 35 wrote on March 23 2014, 08:39 am, edited at 08:40 am

e|7---7---7---7---7---7---7/8---8---8/7---7---7---7---7---|
B|--------------------------------------------------------|
G|--------------------------------------------------------|
D|--------------------------------------------------------|
A|--------------------------------------------------------|
E|--3---3---3---3---3---3-----3---3-----3---3---3---3-----|

Also, I'm not entirely sure, but these seem to be the accompanying bass notes for the other notes:e|7---12--10--8---7---|B|--------------------|G|--------------------|D|--------------------|A|--------------------|E|3---0---7---8---3---|

0 reply
ivarvanwooning 35 wrote on March 23 2014, 08:42 am, edited on March 24 2014, 05:07 pm

e|7---12---8---7---|
B|-----------------|
G|-----------------|
D|-----------------|
A|-----------------|
E|3---12---8---3---|

guest
You may want to rate the tab now too:
select rating
Wanna post a correction for this tab? Suggest correction