Oops, an error
Loading. Please wait.

El Emperador Bass

42 views 1 this week
no commentswrite comment
1 2 3 4 5
3 more votes to show rating
add to favorites
launch autoscroll
font size
0
reset
guitar tuner
×
Best way to learn
"El Emperador"
Autoscroll
slow
fast
+/-
esc
set tempo
stop
Bm               G
G|*-----------------|-----------------|
D|*-----------------|-----------------|
A|---2-----2-----2--|-----------------|
E|------2-----2-----|--3--0--3--0--3--|

    A                 Bm
G|-----------------|------------------|
D|-----------------|--------0--------*|
A|--0-----0-----0--|--2--------4--2--*|
E|-----0-----0-----|-----2------------|

El Bajo sigue igual en toda la canción.
En la parte de la quena hace dos veces el Bm con el A,
pero es lo único distinto.
Suggest correction
Give kudos to tab author, rate the tab!
1 2 3 4 5
comments
print report bad tab
guest
You may want to rate the tab now too:
select rating
Wanna post a correction for this tab? Suggest correction