Oops, an error
Loading. Please wait.

Voy A Hacer El Amor Bass Tab

18 views 1 this week
no commentswrite comment
1 2 3 4 5
3 more votes to show rating
add to favorites
launch autoscroll
font size
0
reset
guitar tuner
Autoscroll
slow
fast
+/-
esc
set tempo
stop
Help us to improve Ultimate-Guitar.com Take our survey!
×
Esta es la version en vivo:

INTRO:

G----------------------------------------/--------------------------------//
D-------------5--------------5----------/--------------------------------//
A------2--5----------2--5-------------/--4---4-4----4----4-4-------//
E---3-------------3--------------------/-------------5-------------5---//
\par
Tomo tu mano y salgo a caminar:\par
G--------------------------------------/-----------------------------------//
D-------------7-------------7--------/-----------------------------------//
A------4--7---------4--7-----------/--4---4-4----4----4-4----------//
E---5-------------5-----------------/-------------5-------------5-------//

Por la triste y.....
G-----------------------------------/------------------------------------//
D-------------5--------------5-----/------------------------------------//     X 2 veces.
A------2--5----------2--5--------/--4---4-4----4----4-4-----------//
E---3-------------3----------------/------------5-------------5--------//

Denunciando el dolor...      Cantando el amor...      Proponiendo la paz...
G----------------------------------/----------------------------------/-----------------------------//
D----------------------------------/----------------------------------//----------------------------//
A-----------------------------------/---5-----------------------------/----------------------------//
E---3------------------------------/----------------------------------/---5-----------------------//

CORO: igual que el INTRO.

Cuando el coro es mas lento
Voy a hacer el amor y sera, sera mejor que sentarse y ponerse a llorar.....
G--------------------------------------------------------------------//
D-------------------------------------------------------------------//
A-----------------5--5--5--5------------------------------------//
E---3--3--3--3----------------5--5--5--5--5--5--5--5------//

Otra forma de tocar el coro:
G---------------------------------------------------------------------------//
D---------------------------------------------------------------------------//
A--------------------5-5-5-5-5-5---------------------------------------//   Se toca rapido.
E---3-3-3-3-3-3-------------------5-5-5-5-5-5-5-5-5-5-5-5-----//
Ustedes vean igual suena bien.

RECHACEN LA GUERRA Y AL CERDO IMPERIALISTA DE BU$H, NO MAS GENTE SUFRIENDO POR LA IDEA 
INUTIL DE UN MALDITO DICTADOR.
SEAN LIBRES Y NO TENGAN MIEDO DE DECIR LO QUE PIENSAN Y DE LUCHAR POR SUS IDEALES.
NO SIEMBREN NI EL ODIO, NI LA ENVIDIA....
SIGAN CREYENDO EN NUESTRA REVOLUCION DE PAZ Y AMOR ! ! ! !
JUNTOS PODEMOS UNIDOS VENCEREMOS ! ! ! ! !

Un saludo un abrazo y muchos besos a Clarita M.  TE ADORO MUCHO ERES PERFECTA ! !o

sugerencias,reclamos,aportes,etc...
 perro_brutal_893@
Suggest correction
Give kudos to tab author, rate the tab!
1 2 3 4 5
comments
print report bad tab
guest
You may want to rate the tab now too:
select rating
Wanna post a correction for this tab? Suggest correction