Oops, an error
Loading. Please wait.

Cement Stitches Tab

143 views 1 this week
no commentswrite comment
1 2 3 4 5
please rate
add to favorites
launch autoscroll
font size
0
reset
how to read this tab
guitar tuner
Tab Pro tools
  • play this tab
  • loop segment
  • change instrument
  • show fretboard
  • metronome
×
Best way to learn
"Cement Stitches"
Autoscroll
slow
fast
+/-
esc
set tempo
stop
Contributor
Difficulty
intermediate
----------------------------------------------|
----------------------------------------------|
----------------------------------------------|
----------------------------------------------| x8
0-03-0-5-0-3-77777777-0-03-0-5-0-3-xxxxxxxx---|
0-03-0-5-0-3-55555555-0-03-0-5-0-3-xxxxxxxx---|

---------------19-19-19-19-19-19-19-19|
--------------------------------------|
--------------------------------------|
--------------------------------------|
0-03-0-5-0-3--------------------------|
0-03-0-5-0-3--------------------------|

---------------15-15-15-15-15-15-15-15|
--------------------------------------|
--------------------------------------|
--------------------------------------| 
0-03-0-5-0-3--------------------------|
0-03-0-5-0-3--------------------------|

---------------19-19-19-19-19-19-19-19|
--------------------------------------|
--------------------------------------|
--------------------------------------|
0-03-0-5-0-3--------------------------|
0-03-0-5-0-3--------------------------|

---------------15|
-----------------|
-----------------|
-----------------| 
0-03-0-5-0-3-----|
0-03-0-5-0-3-----|

----------------------------------------------|
----------------------------------------------|
----------------------------------------------|
----------------------------------------------|
----------------------------------------------|
0-03-0-5-0-3-0-5-0-3-0-6-5-3-0----------------|

----------------------------------------------|
----------------------------------------------|
----------------------------------------------|
----------------------------------------------| x2
-----------------------6-5-3-0----------------|
0-03-0-5-0-3-0-5-0-3-0------------------------|

--------------------------------------------------|
--------------------------------------------------|
--------------------------------------------------|
--------------------------------------------------| x3
5-555555555---------------------------------------|
3-333333333-6-5-3-0--0-3-0-5-0-3-0-5-0-3-0-6-5-3-0|

----------------------------------------------|
----------------------------------------------|
----------------------------------------------|
----------------------------------------------|
5-55555555-0-3-5-6-5-3-0----------------------|
3-33333333-0-3-5-6-5-3-0----------------------|

19-19-19-19-19-19-19-19-----------------------|
----------------------------------------------|
----------------------------------------------|
----------------------------------------------|
-------------------------0-03-0-5-0-3---------|
-------------------------0-03-0-5-0-3---------|

15-15-15-15-15-15-15-15-----------------------|
----------------------------------------------|
----------------------------------------------|
----------------------------------------------|
-------------------------0-03-0-5-0-3---------|
-------------------------0-03-0-5-0-3---------|

19-19-19-19-19-19-19-19-------------15--------|
----------------------------------------------|
----------------------------------------------|
----------------------------------------------|
------------------------0-0-5-0-3-------------|
------------------------0-0-5-0-3-------------|

----------------------------------------------|
----------------------------------------------|
----------------------------------------------|
----------------------------------------------|
----------------------------------------------|
0-03-0-5-0-3-0-5-0-3-0-6-5-3-0----------------|

----------------------------------------------|
----------------------------------------------|
----------------------------------------------|
----------------------------------------------| x2
-----------------------6-5-3-0----------------|
0-03-0-5-0-3-0-5-0-3-0------------------------|


--------------------------------------------------|
--------------------------------------------------|
--------------------------------------------------|
--------------------------------------------------| x2
5-555555555---------------------------------------|
3-333333333-6-5-3-0--0-3-0-5-0-3-0-5-0-3-0-6-5-3-0|

----------------------------------------------|
----------------------------------------------|
----------------------------------------------|
----------------------------------------------| x3
----------------------------------------------|
0-03-0-5-0-3-0-5-0-3-0-6-5-3-0----------------|

----------------------------------------------|
----------------------------------------------|
----------------------------------------------|
----------------------------------------------|
----------------------------------------------| x8
0-0-3-3-5-0-0-3-3-6-0-0-3-3-5-0-0-6-5-3-5-3-5-|

---------------19-19-19-19-19-19-19-19|
--------------------------------------|
--------------------------------------|
--------------------------------------|
0-03-0-5-0-3--------------------------|
0-03-0-5-0-3--------------------------|

---------------15-15-15-15-15-15-15-15|
--------------------------------------|
--------------------------------------|
--------------------------------------| 
0-03-0-5-0-3--------------------------|
0-03-0-5-0-3--------------------------|

---------------19-19-19-19-19-19-19-19|
--------------------------------------|
--------------------------------------|
--------------------------------------|
0-03-0-5-0-3--------------------------|
0-03-0-5-0-3--------------------------|

---------------/12\|
-------------------|
-------------------|
-------------------| 
0-03-0-5-0-3-------|
0-03-0-5-0-3-------|

----------------------------------------------|
----------------------------------------------|
----------------------------------------------|
----------------------------------------------|
--------------------------------0-0-----------|
0-03-0-5-0-3-0-5-0-3-0-6-5-3-0--0-0-----------|

It didn't feel complete without addding the solo in it, so I half assed it. Play 
it if you choose to. 

*Solo* (Keep bending and hitting) 
----------------------------------------------|
19b-19-21-19-17-19-17-15-17-15-14-14b-12------|
----------------------------------------------|
----------------------------------------------|
----------------------------------------------|
----------------------------------------------|

-----------------------------------------------------------------|
14b-14-14-14-15-17-15-19b-19-18-16-19-18-16-19-18-16-19-19p18h16b|
-----------------------------------------------------------------|
-----------------------------------------------------------------|
-----------------------------------------------------------------|
-----------------------------------------------------------------|
comments
We did not receive enough feedback on this tab! Please rate:
print report bad tab
1 2 3 4 5
I want to post or [tab]
guest
You may want to rate the tab now too:
select rating
Please do not post tabs as comments. Select "correction" instead!