Oops, an error
Loading. Please wait.

Cranes In The Sky Bass

2,449 views 63 this week
no commentswrite comment
1 2 3 4 5
x 6
add to favorites
launch autoscroll
font size
0
reset
guitar tuner
×
Best way to learn
"Cranes In The Sky"
Autoscroll
slow
fast
+/-
esc
set tempo
stop
Author
Difficulty
  follow
intermediate
About this tab version
As recorded with rhythm notation. Was this info helpful? Yes No
Intro

G|-------------|-----------------|
D|-- 11 Bars --|-----------------|
A|--   Rest  --|-----------------|
E|-------------|---------1-------|
                 H       H

Verse 1

G||------------------|-----------------|-----------------|-----------------|
D||o-----------------|-----------------|-------3-------3-|-----------------|
A||o-1---------2-3-4-|(4)--------------|-----3-----------|-1---1-----2-3-4-|
E||------------------|-----------------|---------1-------|---1-------------|
     H       E E E E   W                 Q.  S S Q.  S S   E E Q.    E E E

G|-------------6---|-6/8\6-----------|-----------------|-----------------|
D|-----------6---6-|-----------------|-----------------|-----------------|
A|(4)--4-----------|-----------------|-1---------2-3-4-|(4)--4-----------|
E|---4-------------|-------------1---|-----------------|---4-------------|
   E E H   S S S S   S S Q.  Q   Q     H       E E E E   E E H.

                                                                        x3
G|-----------------|-----------------|-----------------|------------------||
D|-----------3-----|-----------------|-----------------|-----------------o||
A|(4)------3-------|-1---------2-3-4-|(4)--4-----------|-4---------------o||
E|-------------1---|-----------------|---4-------------|---------1--------||
   H     E S S Q     H       E E E E   E E H.            H       H

Verse 2

G||------------------|-----------------|-----------------|-----------------|
D||o-----------------|-----------------|-------3-------3-|-----------------|
A||o-1---------2-3-4-|(4)--------------|-----3-----------|-1---1-----2-3-4-|
E||------------------|-----------------|---------1-------|---1-------------|
     H       E E E E   W                 Q.  S S Q.  S S   E E Q.    E E E

G|-------------6---|-6/8\6-----------|-----------------|-----------------|
D|-----------6---6-|-----------------|-----------------|-----------------|
A|(4)--4-----------|-----------------|-1---------2-3-4-|(4)--4-----------|
E|---4-------------|-------------1---|-----------------|---4-------------|
   E E H   S S S S   S S Q.  Q   Q     H       E E E E   E E H.

                                                                        x3
G|-----------------|-----------------|-----------------|------------------||
D|-----------3-----|-----------------|-----------------|-----------------o||
A|(4)------3-------|-1---------2-3-4-|(4)--4-----------|-4---------------o||
E|-------------1---|-----------------|---4-------------|---------1--------||
   H     E S S Q     H       E E E E   E E H.            H       H

Outro

G||------------------|-----------------|-----------------|-----------------|
D||o-----------------|-----------------|-------3-------3-|-----------------|
A||o-1---------2-3-4-|(4)--------------|-----3-----------|-1---1-----2-3-4-|
E||------------------|-----------------|---------1-------|---1-------------|
     H       E E E E   W                 Q.  S S Q.  S S   E E Q.    E E E

G|-------------6---|-6/8\6-----------|-----------------|-----------------|
D|-----------6---6-|-----------------|-----------------|-----------------|
A|(4)--4-----------|-----------------|-1---------2-3-4-|(4)--4-----------|
E|---4-------------|-------------1---|-----------------|---4-------------|
   E E H   S S S S   S S Q.  Q   Q     H       E E E E   E E H.

G|-----------------|-----------------|-----------------|------------------||
D|-----------3-----|-----------------|-----------------|-----------------o||
A|(4)------3-------|-1---------2-3-4-|(4)--4-----------|-4---------------o||
E|-------------1---|-----------------|---4-------------|---------1--------||
   H     E S S Q     H       E E E E   E E H.            H       H
Suggest correction
comments
print report bad tab
guest
You may want to rate the tab now too:
select rating
Wanna post a correction for this tab? Suggest correction