Oops, an error
Loading. Please wait.

Weary Bass Tab

1,198 views 27 this week
no commentswrite comment
1 2 3 4 5
2 more votes to show rating
add to favorites
launch autoscroll
font size
0
reset
guitar tuner
×
Best way to learn
"Weary"
Autoscroll
slow
fast
+/-
esc
set tempo
stop
Author
This riff repeats throughout the whole song.

G|------8------6--6p4--|
D|----8------6---------|
A|--6------4-----------| x3
E|---------------------|

G|------|
D|------|
A|------|
E|--2~--| 

[Outro]

G|----------------|
D|----------------|
A|--6-6-6--4-4-4--| x2
E|----------------|

G|------------------|
D|------------------|
A|--6-6-6--4--------| 
E|-----------0-1-2--|

************************************

| p   Pull-off

************************************
Suggest correction
Give kudos to tab author, rate the tab!
1 2 3 4 5
comments
print report bad tab
guest
You may want to rate the tab now too:
select rating
Wanna post a correction for this tab? Suggest correction