Oops, an error
Loading. Please wait.

Where Do We Go Bass Tab

298 views 24 this week
no commentswrite comment
1 2 3 4 5
3 more votes to show rating
add to favorites
launch autoscroll
font size
0
reset
guitar tuner
Autoscroll
slow
fast
+/-
esc
set tempo
stop
Help us to improve Ultimate-Guitar.com Take our survey!
×
Author
Difficulty
intermediate
Bass comes in around 00:28

[Intro]

G|--------------------|
D|--------------------|
A|--------------------|
E|--11-9--8-6--4-3-1--|


[Verse]

G|----------------------------------------------|
D|----------------------------------------------|
A|--------3~--------5~--------3~------------1~--|
E|--5-6-5-----5-6-5-----5-6-5-----5-6~--1-1-----|


[Chorus]

G|------------------------|
D|----------3-------------|
A|--1----------1-5--------|
E|----1-1-1--------1-1-1--|

G|---------------------------------------|
D|---------------3h5p3-------------------|
A|--1-0----3-----------3----1-0----3-----|
E|------3----1~----------1------3----1~--|

G|------------------------------|
D|--6-3-------------------------|
A|------4-3-1-1~--------6~-67~--|
E|----------------3-4-6---------|

G|-------------------------------|
D|-------------------------------|
A|-----------3-1~--------6~-67~--|
E|--1-3-4--1-------3-4-6---------|


[Verse]

G|---------------------------------------------|
D|---------------------------------------------|
A|--------3~--------5~--------5~---------0-1~--|
E|--5-6-5-----5-6-5-----5-6-5-----5-6--1-------|


[Chorus]

G|--------------------------------------------------|
D|-------------------3------------------------------|
A|-1-5-------1-5------------1-5----------1-5--------|
E|-----1-1-1-----1-1---1-45-----1-1-1-45-----1-1-1--|

G|------------------------------------|
D|----------------3h5p3---------------|
A|--1-0----3-------------1-0----3-----|
E|------3----1~--------------3----1~--|

G|--------------------------------|
D|--6-3---------------------------|
A|------4-3-1---1~--------6~-67~--|
E|------------1-----3-4-6---------|

G|----------------------------------|
D|----------------------------------|
A|-----------3-1~--------6~-6/8\7~--|
E|--1-3-4--1-------3-4-6------------|


[Outro]

G|---------------------------------------|
D|--6-5-3-------------3------------------|
A|--------6-4-3---------1~--------6-67~--|
E|--------------4-3-1-------3-4-6--------|

G|----------------------------------|
D|----------------------------------|
A|------------3-1~--------6-67/8\7--|
E|---1-3-4--1-------3-4-6-----------|

G|----------------------------------------|
D|--6-5-3-------------3-------------------|
A|--------6-4-3---------3-1~-------6-67~--|
E|--------------4-3-1--------3-4-6--------|

G|-------------------------------|
D|-------------------------------|
A|------------3-1~--------6-67~--|
E|---1-3-4--1-------3-4-6--------|

G|---------------------------------------|
D|--6-5-3-------6-5-3-3------------------|
A|--------6-4-3---------3-1~-------6-7~--|
E|---------------------------3-4-6-------|

G|-------------------------------------------|
D|--6-5-3-------6-5-3---3--------------------|
A|--------6-4-3-------3---3-1~--------6~-7~--|
E|------------------------------3-4-6--------|



************************************

| ~  Vibrato
| h  Hammer-on
| p  Pull-off
| /  Slide up
| \  Slide down

************************************
Suggest correction
Give kudos to tab author, rate the tab!
1 2 3 4 5
comments
print report bad tab
guest
You may want to rate the tab now too:
select rating
Wanna post a correction for this tab? Suggest correction