Oops, an error
Loading. Please wait.

Lo Que Eres Tab

48 views 1 this week
no commentswrite comment
1 2 3 4 5
3 more votes to show rating
add to favorites
launch autoscroll
font size
0
reset
how to read this tab
guitar tuner
Autoscroll
slow
fast
+/-
esc
set tempo
stop
Help us to improve Ultimate-Guitar.com Take our survey!
×
Saludos

Aqui esta un tributo a una buena banda de los noventa


espero, les guste esta  version =D

SOLAR
Lo que eres
Play 1997


ACORDES
   B   D#m   F#   C#m7   D#m7   B1   C#m   G#m    A
E)-7-|--6--|--2--|--4--|--6--|--x--|--4--|--4--|--5--|
B)-7-|--7--|--2--|--5--|--7--|--5--|--5--|--4--|--5--|
G)-8-|--8--|--3--|--4--|--6--|--4--|--6--|--4--|--6--|
D)-9-|--8--|--4--|--6--|--8--|--4--|--6--|--6--|--7--|
A)-9-|--6--|--4--|--4--|--6--|--2--|--4--|--6--|--7--|
E)-7-|--x--|--2--|--x--|--x--|--x--|--x--|--4--|--5--|
INTRO:


Fig1

     B
E/---------------------
B/---------------------
G/---------------------
D/-------4-6p4---4-----
A/---4h6-------6-------
E/---------------------


Fig2

     B
E/---------------------
B/-------2--0h2--------
G/-----4---------------
D/---4-----------------
-


intro,

     B
E/----------------------------4---2----------------------------
B/------------2h4--2h0----------------5-4----------------------
G/------2--4----------------4---4------------4--4h6-4---4-6s8---
D/---4-----------------4----------------------------------------
A/--------------------------------------------------------------
E/--------------------------------------------------------------

     B
E/--------5---4---2---------------------------------------------
B/---------------------5---4------------------------4-----------
G/----2/4----4---4---------------4----4h6p4---4-4h6-------------
D/--------------------------------------------------------------
A/--------------------------------------------------------------
E/--------------------------------------------------------------


ESTROFA

B

Robar un poco de sueño y de verdad,
      D#m             F#  Fig1

quien sabe,  a donde voy

B

Tomaré el control la calle alrededor
      D#m            F#

sentiré el aire  del color


PRECORO:


C#m7        D#m7  F#

Sin sombras del sol


D#m7        C#m7  F#


CORO:


  A    G#m     F#         B    Fig2
  La noche es luminosa aa

  A          C#m     B1   B Fig2
  porque deslumbra y acerca

      (X2)


     B
E/----------------------------4---2----------------------------
B/------------2h4--2h0----------------5-4----------------------
G/------2--4----------------4---4------------4--4h6-4---4-6s8---
D/---4-----------------4----------------------------------------
A/--------------------------------------------------------------
E/--------------------------------------------------------------

     B
E/--------5---4---2---------------------------------------------
B/---------------------5---4------------------------4-----------
G/----2/4----4---4---------------4----4h6p4---4-4h6-------------
D/--------------------------------------------------------------
A/--------------------------------------------------------------
E/--------------------------------------------------------------


ESTROFA:

B

Ella no se ve  tarde al anochecer,
        D#m          F#  Fig1

quien sabe, como será

B

Y te confiaré que no es parte de mi
         D#m          F#  Fig1

 si es ella al despertar

PRECORO:

C#m7        D#m7  F#

Sin sombras del sol

D#m7        C#m7  F#

CORO:


 A    G#m     F#         B    Fig2
  La noche es luminosa aa

  A         C#m   B1   B   Fig2
  al  no perderte de vistaa

      (X2)


Solo


     A              G#m          F#                B
E/--------------------------------------------------------------
B/---------------9-------9-12---12p9-12p9-----------------------
G/----------9-11----9-11------------------11-9-11--9p8----8------
D/---7s9-11--------------------------------------------11---11-9-
A/---------------------------------------------------------------
E/---------------------------------------------------------------

     A              G#m           F#              B
E/----------------------------------------------------
B/----------------------------------------------------
G/-------------8---6s8-9-8-6-8s6---4p2----------------
D/---11--9s11-----------------------------4p2----------
A/----------------------------------------------4--2~/-
E/-----------------------------------------------------


     A              G#m          F#                B
E/------------------------------------12-9-------------
B/---------------9-------9-12---12p9 -----12-9---------
G/----------9-11----9-11--------------------------11b--
D/---7s9-11--------------------------------------------
A/-----------------------------------------------------
E/-----------------------------------------------------


     A             G#m             F#               B
E/--------12---------12------12------------------------------
B/------------------------------------------------------------
G/---11b---------11b-----11b-------11b-11-11911-11b-11(sonando)
D/-------------------------------------------------------------
A/-------------------------------------------------------------
E/-------------------------------------------------------------

RUPTURA

 B
E/---------0----------0--------0----------0---------------------------------
B/-------0----------0--------0---------0------------------------------------
G/-----1----------1--------1--------1---------------------------------------
D/--2----------1--------0---------------------------------------------------
A/-------------------------------4------------------------------------------
E/--------------------------------------------------------------------------
 Fig3(x2)


Fig3

Porque deslumbraaas, al descubrirte maaas

     A  G#m G F#

 al descubrirte maaas


     A  G#m G F#


by glenmateo123
Suggest correction
Give kudos to tab author, rate the tab!
1 2 3 4 5
comments
print report bad tab
guest
You may want to rate the tab now too:
select rating
Wanna post a correction for this tab? Suggest correction