Oops, an error
Loading. Please wait.

Reasonland tab

by Solas
61 views 1 this week
no commentswrite comment
1 2 3 4 5
3 more votes to show rating
add to favorites
×
Save as Personal and add changes to this tab that will be seen only by you. Learn more ›
×
You can save this tab as Personal to edit and correct it or add notes. All changes will be seen only by you. Learn more »
launch autoscroll
font size
0
reset
how to read this tab
guitar tuner
edit
Autoscroll
slow
fast
+/-
esc
set tempo
stop
Based on this 2006 live version: https://www.youtube.com/watch?v=3MYB9kTBsag but works just fine for the
studio version as well. 


[Intro]

e|---------------------|
B|---------3-----------|
G|-------------2-------|
D|-0-----0---0---0-0---|  x4
A|-2p0-------------2p0-|
D|-----0---------------|
   4 + 1 + 2 + 3 + 4 +


[Verse]

   D                G       D/F#     D                A7sus4  A7  D
e|----------------|----------------|----------------|----------------|
B|-----3-------3--|-----0-------3--|-----3-------3--|-----3---2---3--|
G|----------------|----------------|----------------|-------0-------2|
D|---0-------0---0|----------------|---0---0---0----|---2------------|
A|----------------|---2-------0----|----------------|-0--------------|
D|-0-------0------|-5-------4------|-0-------0------|----------------|
   1 + 2 + 3 + 4 +  1 + 2 + 3 + 4 +  1 + 2 + 3 + 4 +  1 + 2 + 3 + 4 +
   
   D       Dmaj7            G        D       A7sus4   D       Dmaj7
e|----------------|----------------|----------------|----------------|
B|-----3-------3--|-----3-------3--|-----3-------3--|-----3-------3--|
G|-------2-------2|-------0-------0|-------2-------0|-------2--------|
D|---0-------0----|---0-------0----|---0-------2----|---0-------0----|
A|---------4------|-2--------------|---------0------|---------4------|
D|-0--------------|---------5------|-0--------------|-0--------------|
   1 + 2 + 3 + 4 +  1 + 2 + 3 + 4 +  1 + 2 + 3 + 4 +  1 + 2 + 3 + 4 +

[Chorus]

   D6      A7       G       D/F#     D                A7sus4  A7  D
e|----------------|----------------|----------------|----------------|
B|-----2-3-----2--|-----0-------3--|-----3----------|-----3---2---3--|
G|----------------|----------------|-------2-----0-2|-------0-------2|
D|---4-------2---2|---0---0---0----|---0------------|---2------------|
A|-2-------0------|----------------|-----------2----|-0--------------|
D|----------------|-5-------4-----2|-0-------2------|----------------|
   1 + 2 + 3 + 4 +  1 + 2 + 3 + 4 +  1 + 2 + 3 + 4 +  1 + 2 + 3 + 4 +

   D                G                D       A7sus4   D
e|----------------|----------------|----------------|----------------|
B|-----3-------3--|-----3-0-3---3--|-----3-------3--|-----3----------|
G|-------2-------2|----------------|-------2-------0|---------2------|
D|---0-------0----|---0-------0---0|---0-------2----|---0---0---0-0--|
A|----------------|----------------|---------0------|-------------2p0|
D|-0-------0------|-5--------------|-0--------------|-0--------------|
   1 + 2 + 3 + 4 +  1 + 2 + 3 + 4 +  1 + 2 + 3 + 4 +  1 + 2 + 3 + 4 +


[Verse 2]

The chords being sketched here are all the same, so the verse 1 pattern will also work just fine, but i
tried to tab the different variations so you'd have your choice. really so long as you're arpeggiating
the right chord it'll probably sound good

e|----------------|----------------|----------------|----------------|
B|-----3-------3--|-----0----------|-----3-------3--|-----3---2---3--|
G|---------2------|-------------2--|---------2------|-------0-------2|
D|---0---0---0---0|----------------|---0---0---0---0|---2------------|
A|----------------|---2---2---0----|----------------|-0--------------|
D|-0--------------|-5-------4-----2|-0--------------|----------------|
   1 + 2 + 3 + 4 +  1 + 2 + 3 + 4 +  1 + 2 + 3 + 4 +  1 + 2 + 3 + 4 +
   
e|----------------|----------------|----------------|----------------|
B|-----3-------3--|-----2-3-----0--|-----3-------3--|-----3-------3--|
G|-------2-------2|----------------|-------2-------0|-------2--------|
D|---0-------0----|---0-------0---0|---0-------2----|---0-------0---0|
A|---------4------|-2--------------|---------0------|---------4------|
D|-0--------------|---------5------|-0--------------|-0--------------|
   1 + 2 + 3 + 4 +  1 + 2 + 3 + 4 +  1 + 2 + 3 + 4 +  1 + 2 + 3 + 4 +

   
[Chorus 2]

pretty much identical except the transition into the bridge

e|----------------|----------------|----------------|----------------|
B|-----2-3-----2--|-----0-------3--|-----3----------|-----3---2---3--|
G|----------------|----------------|-------2-----0-2|-------0-------2|
D|---4-------2---2|---0---0---0----|---0------------|---2------------|
A|-2-------0------|----------------|-----------2----|-0--------------|
D|----------------|-5-------4-----2|-0-------2------|----------------|
   1 + 2 + 3 + 4 +  1 + 2 + 3 + 4 +  1 + 2 + 3 + 4 +  1 + 2 + 3 + 4 +
   
e|----------------|----------------|----------------|----------------|
B|-----3-------3--|-----0-3-3---3--|-----3-------3--|-----3----------|
G|-------2-------2|----------------|-------2-------0|-------2-----2--|
D|---0-------0----|---0-------0---0|---0-------2----|---0-------0----|
A|----------------|----------------|---------0------|---------4------|
D|-0-------0------|-5--------------|-0--------------|-0--------------|
   1 + 2 + 3 + 4 +  1 + 2 + 3 + 4 +  1 + 2 + 3 + 4 +  1 + 2 + 3 + 4 +

   
[Bridge] 
  
                                                   (slow D/E and hold/let ring)         
e|----------------|----------------|----------------|----------------|----------------|
B|-----3-0-3---2--|-----2-3-3---2--|-----3-0-3---2--|-----0-------3--|----------------|
G|-----------0---0|-----------0---0|-----------0---0|-------0----2---|----------------|
D|---4------------|---2------------|---4------------|---0-------0----|----------------|
A|-2--------------|-0--------------|-2--------------|----------0-----|----------------|
D|----------------|----------------|----------------|-5-------2------|----------------|
   1 + 2 + 3 + 4 +  1 + 2 + 3 + 4 +  1 + 2 + 3 + 4 +  1 + 2 + 3 + 4 +
   
e|----------------|----------------|----------------|
B|-------------3--|-----2-3-----0--|-3---3---3---3--|
G|-----2-----2----|---------------0|-2---2---2---2--|
D|-------4--------|---0-------2----|-0---0---0---0--|
A|---0-----4------|-2-------0------|-0---0---0---0--|
D|-0--------------|----------------|-2---4---5------|
   1 + 2 + 3 + 4 +  1 + 2 + 3 + 4 +  1 + 2 + 3 + 4 +

   
[Instrumental break]

Has several 2/4 measures for whatever reason

e|----------------|----------------|----------------|
B|-----3-0-3------|-----0---3------|-0--------------|
G|-------------2--|-------2-----2--|-2---2----------| x2
D|---0-------0---0|---2-------2----|-2---2----------|
A|----------------|-0--------------|-0---0----------|
D|-5--------------|----------------|----------------|
   1 + 2 + 3 + 4 +  1 + 2 + 3 + 4 +  1 + 2 + 3 + 4 +
   
e|----------------|------------------|
B|-----3-0-3------|-----3-0-3--------|
G|-------------2--|-----------2------|
D|---0-------0---0|---0-------------0|
A|----------------|-------------0h2--|
D|-5--------------|-5----------------|
   1 + 2 + 3 + 4 +  1 + 2 + 3 + 4   + 
   
e|-----------------|-------------------|
B|-----3-----------|---------3---------|
G|---------2-------|-----2-------------|
D|---0---0---0-0---|---0---0---------0-| 
A|-------------2p0-|-------------0h2---|
D|-0---------------|-0-----------------|
   1 + 2 + 3 + 4 +   1 + 2 + 3 + 4   +

   
[Verse 3]

e|----------------|----------------|----------------|----------------|
B|---------3------|-----0----------|-----3-------3--|-----2---3---2--|
G|-----2-------2--|-------0-----2--|---------2------|-------0---0---2|
D|---0---0---0----|---0------------|---0---0---0----|---2------------|
A|----------------|-----------0----|----------------|-0--------------|
D|-0--------------|-5-------4------|-0--------------|----------------|
   1 + 2 + 3 + 4 +  1 + 2 + 3 + 4 +  1 + 2 + 3 + 4 +  1 + 2 + 3 + 4 +
   
e|----------------|----------------|----------------|----------------|
B|-----3-------3--|-----3-------0--|-----3-------3--|-----3-------3--|
G|-------2-------2|-------0-------0|-------2-------0|-------2--------|
D|---0-------0----|---0-------0----|---0-------2----|---0-------0----|
A|---------4------|-2--------------|---------0------|---------4------|
D|-0--------------|---------5------|-0--------------|-0--------------|
   1 + 2 + 3 + 4 +  1 + 2 + 3 + 4 +  1 + 2 + 3 + 4 +  1 + 2 + 3 + 4 +

   
[Chorus 3]

e|----------------|----------------|----------------|----------------|
B|-----2-3-----2--|-----0-------3--|-----3----------|-----3---2---3--|
G|----------------|----------------|-------2-----0-2|-------0-------2|
D|---4-------2---2|---0---0---0----|---0------------|---2------------|
A|-2-------0------|----------------|-----------2----|-0--------------|
D|----------------|-5-------4-----2|-0-------2------|----------------|
   1 + 2 + 3 + 4 +  1 + 2 + 3 + 4 +  1 + 2 + 3 + 4 +  1 + 2 + 3 + 4 +
   
e|----------------|----------------|----------------|----------------|
B|-----3-------3--|-----3-0-3---3--|-----3-------3--|-----3----------|
G|-------2-------2|----------------|-------2-------0|-------------2--|
D|---0-------0----|---0-------0---0|---0-------2----|---0---0---0---0|
A|----------------|----------------|---------0------|---------4------| only real difference: this turn
D|-0-------0------|-5--------------|-0--------------|-0--------------|
   1 + 2 + 3 + 4 +  1 + 2 + 3 + 4 +  1 + 2 + 3 + 4 +  1 + 2 + 3 + 4 +
   
e|----------------|----------------|----------------|----------------|
B|-----2-3-----2--|-----0-------3--|-----3----------|-----3---2---3--|
G|----------------|----------------|-------2-----0-2|-------0-------2|
D|---4-------2---2|---0---0---0----|---0------------|---2------------|
A|-2-------0------|----------------|-----------2----|-0--------------|
D|----------------|-5-------4-----2|-0-------2------|----------------|
   1 + 2 + 3 + 4 +  1 + 2 + 3 + 4 +  1 + 2 + 3 + 4 +  1 + 2 + 3 + 4 +
   
e|----------------|----------------|----------------|----------------|
B|-----3---3---3--|-----0-3-3---3--|-------------3--|---------3------|
G|-------2-------2|----------------|-----0-2-------0|-------0-2------|
D|---0-------0----|---0-------0---0|---0-------2----|---0-4---0------|
A|----------------|----------------|---------0------|---------0------|
D|-0--------------|-5--------------|-0--------------|-0-------0------|
   1 + 2 + 3 + 4 +  1 + 2 + 3 + 4 +  1 + 2 + 3 + 4 +  1 + 2 + 3 + 4 +


*****************
|p   Pull-off
|h   Hammer-on
*****************

            
            
Suggest correction
Creating personal tab
Creating personal tab
You can edit any tab online and save it as your Personal.

You can edit, replace or remove any tab part or add personal notes – all changes will be seen only by you.

Personal tabs can be accessed anytime from any device, even offline.
Learn more »
Give kudos to tab author, rate the tab!
1 2 3 4 5
comments
print report bad tab
guest
You may want to rate the tab now too:
select rating
Wanna post a correction for this tab? Suggest correction