Oops, an error
Loading. Please wait.

Thunderstorms Tab

version 1
version 1

Whole song

8,658 views 15 this week
no commentswrite comment
1 2 3 4 5
x 4
add to favorites
launch autoscroll
font size
0
reset
how to read this tab
guitar tuner
Autoscroll
slow
fast
+/-
esc
set tempo
stop
Help us to improve Ultimate-Guitar.com Take our survey!
×
Author
Difficulty
intermediate
Tabbed by: Manu Singh (www.youtube.com/user/TheLifeOfManuSingh)
Tuning: Standard
Key of song: Em

Legend:
        v = vibrato
        / = slide up
        / = slide down
        #p = pull off
        #b = bend
        m = middle finger
        r = ring finger
        p = pinky finger

Intro

e|---------------3/5-5-5-3p0-------------------3/5-5-5b-5-3-------|
B|---/5-5--\3-3--3/5-5-5-3p0-------/5-5--\3-3--3/5-5-5b-5-3-------|
G|---/4-4--\2-2--------------------/4-4--\2-2---------------------|  x2
D|----------------------------------------------------------------|
A|----------------------------------------------------------------|
E|----------------------------------------------------------------|
      r          p
      m          r


Part II

(played with slide)

e|-----3-5-/7v-5v-3p0------3-5--7/5/3/5-/5-/5v-------------|
B|-3/5-----------------3/5---------------------------------|
G|---------------------------------------------------------|
D|---------------------------------------------------------|
A|---------------------------------------------------------|
E|---------------------------------------------------------|

e|-----3-5-7/10-7/5/3-3p0------3-5--7/5/3/5----------------|
B|-3/5---------------------3/5--------------/5-/5v---------|
G|---------------------------------------------------------|
D|---------------------------------------------------------|
A|---------------------------------------------------------|
E|---------------------------------------------------------|

Chords for song (I play them barred)
Verse:
Em7-C-Am

Chorus:
[Dm7-Am-Dm7-C]x2 then after the second repeat, end on G
Suggest correction
comments
print report bad tab
guest
You may want to rate the tab now too:
select rating
Wanna post a correction for this tab? Suggest correction