Oops, an error
Loading. Please wait.

You Dont Know Me Tab

version 1
version 1

Whole song

9,529 views 1 this week
1 commentread comment
1 2 3 4 5
1 last vote to show rating
add to favorites
launch autoscroll
font size
0
reset
how to read this tab
guitar tuner
Autoscroll
slow
fast
+/-
esc
set tempo
stop
Help us to improve Ultimate-Guitar.com Take our survey!
×
Author
Difficulty
novice
Piano intro
-----------

The following intro is played piano an octave higher. The Guitar plays a chord
background with some wahwah.

 4/4
  Gtr I
|-------------------10--(10)-10-|-14-12-10-12---------|
|-12-12-10-12-12-10-------------|-------------13---12-|
|-------------------------------|---------------------|
|-------------------------------|---------------------|
|-------------------------------|---------------------|
|-------------------------------|---------------------|


|-------------------10--(10)-10-|-14-12-10-12------|
|-12-12-10-12-12-10-------------|-------------13---|
|-------------------------------|------------------|
|-------------------------------|------------------|
|-------------------------------|------------------|
|-------------------------------|------------------|


|-15-15-15-14-12-15-15-15-15-14-12-|-15-15-15-14-12-15-14-10-(10)--|
|----------------------------------|-------------------------------|
|----------------------------------|-------------------------------|
|----------------------------------|-------------------------------|
|----------------------------------|-------------------------------|
|----------------------------------|-------------------------------|


|-15-15-15-14-12-15-15-15-15-14-12-|-15-15-15-14-12-15-14-10-(10)----*|
|----------------------------------|---------------------------------*|
|----------------------------------|---------------------------------*|
|----------------------------------|---------------------------------*|
|----------------------------------|---------------------------------*|
|----------------------------------|---------------------------------*|



Chords
-------
Em(VII) C(VIII) G(X) D(X)

Lyrics
------

Well, I had one by my side,
but she only tried to get near me.
And never ever knowing about my inside..
But one that I hold is worth so
much more to me if it's both body and mind.

You think I'm alone when everyone's around,
You think I'm home but I'm really out.
You think I'm out but I'm really at home and it seems
that you don't know me no more.

Girl you don't know me no more, this love is real to me.
To make you happy and secure that's what's important to me.
And any tie you're not around, i want you here with me,
Cuz girl, you really appeal to me...
But I see a serious lack of communication,
Ask you for a meal, say you want to bring me chicken -
Like you don't know that I'm a vegetarian.
Is this a love or an infatuation cuz

You think I'm alone but everyone's around
You think I'm home when I'm really out
You think I'm out but I'm really at home and it seems
that you don't know me no more.

All that I've learned is all I'm taking now with me,
Never will I wait for too long again.
You can take all old roses with you cuz
I've got new gardens I must grow.

Think I'm alone everyone is around

And girl you can't hold me no more, cuz I got places to go
and anywhere that I go I got people I know.
I wanna see you everyday knocking at my door, but
first, I really wanna let you know that...
This is a troubled world that we live on,
And the almighty creator put me on a mission,
So you can walk with me on this path trough creation,
And we can help each other reveal our visions.

You think I'm alone but everyone's around
You think I'm home when I'm really out
You think I'm out but I'm really at home and it seems
that you don't know me no more.

Think I'm alone, everyone is around
Suggest correction
Give kudos to tab author, rate the tab!
1 2 3 4 5
comments
print report bad tab
1 comment total.
0 reply
x_bass009 153 Nov 06, 2008 02:07 AM

could you tab the guitar in the background when the guy with the deep voice sings?

guest
You may want to rate the tab now too:
select rating
Wanna post a correction for this tab? Suggest correction