Oops, an error
Loading. Please wait.

A Don Ata Tab

75 views 1 this week
no commentswrite comment
1 2 3 4 5
3 more votes to show rating
add to favorites
launch autoscroll
font size
0
reset
how to read this tab
guitar tuner
Autoscroll
slow
fast
+/-
esc
set tempo
stop
Help us to improve Ultimate-Guitar.com Take our survey!
×
aca esta la intro que me enseño mi viejo :)


E ---5--5---5-8-8-7------------------------/
B --5--5---5-------------------------------/
G -----------------------------------------/
D -----------------------------------------/
A -----------------------------------------/
E -----------------------------------------/

E ---7--7---7-10-10-8----------------------/
B --5--5---5-------------------------------/
G -----------------------------------------/
D -----------------------------------------/
A -----------------------------------------/
E -----------------------------------------/

E ---8--8---8-10--10-8-7-5-----------------/
B --5--5---5-------------------------------/
G -----------------------------------------/
D -----------------------------------------/
A -----------------------------------------/
E -----------------------------------------/
Suggest correction
Give kudos to tab author, rate the tab!
1 2 3 4 5
comments
print report bad tab
guest
You may want to rate the tab now too:
select rating
Wanna post a correction for this tab? Suggest correction