Oops, an error
Loading. Please wait.

Chilenito De Pucon Tab

21 views 1 this week
no commentswrite comment
1 2 3 4 5
3 more votes to show rating
add to favorites
launch autoscroll
font size
0
reset
how to read this tab
guitar tuner
Autoscroll
slow
fast
+/-
esc
set tempo
stop
Help us to improve Ultimate-Guitar.com Take our survey!
×
Introducción:
Primera Parte (x2)

1|-9-9-9--------9-9-9--------9-10-9------9-----9---/
2|-------12-10--------12-10---------12-10-9---12---12-10-9--12---/
/12-10-9----12-10-10-10-


1|-9-9-9--------9-9-9--------9-10-9/--9-10---14-12-14-12-10-9-
2|-------12-10--------12-10---------12-10-9-------------------12-10---


Segunda parte

1|-9-10-12---16-14-16-17-----9-10-12---16-14-16-17------
2|------------------------------------------------------
3|------------------------------------------------------
4|------------------------------------------------------
5|------------------------------------------------------
6|------------------------------------------------------

        LA              FA#
No hay nieves, soles ni lluvias
    RE              LA
que detengan su sonrisa
   MI
dignificando al trabajo
                    LA
a paso firme en el día.
   RE              LA
Dignificando al trabajo
        MI          LA
a paso firme en el día.

Con su chilena figura
quijote de la mañana
delgadamente rocoso
acudiendo a la montaña
mientras lo espera en su rancho
con sopaipilla cantando.


LA SOL# FA#    DO#
Chilenito de Pucón
   RE            LA
Juanito honra su sombra
    MI
porque la tierra lo quiere
                           LA
y él quiere a su tierra noble.
     RE        LA
Chilenito de Pucón
        MI     LA
te dejo mi corazón.
Suggest correction
Give kudos to tab author, rate the tab!
1 2 3 4 5
comments
print report bad tab
guest
You may want to rate the tab now too:
select rating
Wanna post a correction for this tab? Suggest correction