Oops, an error
Loading. Please wait.

Kilometro 11 Tab

138 views 1 this week
no commentswrite comment
1 2 3 4 5
3 more votes to show rating
add to favorites
launch autoscroll
font size
0
reset
how to read this tab
guitar tuner
Autoscroll
slow
fast
+/-
esc
set tempo
stop
Help us to improve Ultimate-Guitar.com Take our survey!
×
Vengo otra vez hasta aquí, de nuevo a implorar tu amor

          A                        E7
E-----------------0-0----|-----------------------------
B-------------2-2--------|-3-2-2-0-0---0---------------
G-------2-2-2------------|-----------2-- 1-------------
D-----2------------------|-----------------------------
A------------------------|-----------------------------
E------------------------|-----------------------------
                                      A
Solo hay tristeza y dolor, al verme lejos de ti

E-------------------------|----------------------------
B-------------------------|----------------------------
G-1-1-1-1-2-2-4-4---------|-2-2-2-1-1---2--------------
D-------------------------|-----------4----------------
A-------------------------|----------------------------
E-------------------------|----------------------------
  F#m
Culpable tan solo soy , de todo lo que he sufrido

E-------------------------|----------------------------
B-------------------------|----------------------------
G----------------2--------|-1-1-1----------------------
D----2-2-2-2-4-2----------|--------4-4-2-2-0-----------
A-------------------------|----------------------------
E-------------------------|----------------------------
                     E7
Por eso es que ahora he venido , y triste muy triste estoy

E--------------------------|---------------------------
B--------------------------|---------------------------
G--------------------------|-1-1-----------------------
D-0-0-0-0-2-0--------------|-----4-4-2-2-0-0-----------
A--------------------------|-----------------4---------
E--------------------------|---------------------------

Aca empieza todo de nuevo el mismo punteo con este parrafo:


Nunca vayas a olvidar
Que un día a este cantor
Le has dicho llena de amor
Sin ti no me podré hallar.
Por eso quiero saber
Si existe en tu pensamiento
Aquel puro sentimiento
Que me supiste tener.

Y sigue con esto?


  Ovida mi bien            , el enojo aquel .

E--------------------------|--------------------------
B--------------------------|--------------------------
G--------------------------|--------------------------
D-4-2-2-4-2----------------|-----4-2-2-4-0------------
A--------------------------|--------------------------
E--------------------------|--------------------------

Que asi nuestro amor            ira a renacer

E--------------------------|--------------------------
B--------------------------|--------------------------
G--------------------------|--------------------------
D--2-0-0-2-0---------------|----2-0-0-2---------------
A--------------------------|------------4-------------
E--------------------------|--------------------------

Porque comprendi que no se vivir , sin tu querer

E--------------------------|-------------------------|
B--------------------------|-------------------------|
G--------------------0-----|-------------------------|
D-4-2-2-4-2-4-2-2-4--------|-----4-2-0---------------|
A--------------------------|-----------4-------------|
E--------------------------|-------------------------|


..Y asi vayan repitiendo  en las estrofas que sigan ..

Espero que les guste , cualquier qeja o algo manden un mail
o agreguen mi msn , graciaas.
Suggest correction
Give kudos to tab author, rate the tab!
1 2 3 4 5
comments
print report bad tab
guest
You may want to rate the tab now too:
select rating
Wanna post a correction for this tab? Suggest correction