Oops, an error
Loading. Please wait.

Que Nadie Sepa Mi Sufrir Tab

by Soledad
335 views 1 this week
no commentswrite comment
1 2 3 4 5
2 more votes to show rating
add to favorites
launch autoscroll
font size
0
reset
how to read this tab
guitar tuner
×
Best way to learn
"Que Nadie Sepa Mi Sufrir"
Autoscroll
slow
fast
+/-
esc
set tempo
stop
de soledad el punteo ahi va

que nadie  sepa mi sufrir   tono la m

                    c5
--5-5-5-5-5-5-5-5---5-5-7-7-5-5-7-7--------7-7-----7-7-------
--6-6-6-6-6-6-6-6---5-5-5-5-5-5-5-5----9-9-9-9-9-9-9-9-------
--7-7-7-7-7-7-7-7---5-5-5-5-5-5-5-5----9-9-----9-9-----------
-------------------------------------------------------------
-------------------------------------------------------------
-------------------------------------------------------------


-5-0-1-2-3-4----5-5-7-7-5-5-7-7----5-5-7-7----5-5--7-7-------
----------------6-6-6-6-6-6-6-6----5-5-5-5----5-5--5-5-------
----------------7-7-7-7-7-7-7-7----5-5-5-5----5-5--5-5-------
-------------------------------------------------------------
-------------------------------------------------------------
-------------------------------------------------------------

------7-7-----7-7------5-4-5-0-------------------------------
-9-9--9-9-9-9-9-9--------------1-----------------------------
-9-9------9-9--------------------2---------------------------
-------------------------------------------------------------
-------------------------------------------------------------
-------------------------------------------------------------

ese es el intro de la cancion

no pongo la letra ni los acordes por que vi en otra transcripcion

que si ya lo hay y estas correctas la cancion esta en tono la menor

abucheos u alabos a jos_manolo@
Suggest correction
Give kudos to tab author, rate the tab!
1 2 3 4 5
comments
print report bad tab
guest
You may want to rate the tab now too:
select rating
Wanna post a correction for this tab? Suggest correction