Oops, an error
Loading. Please wait.

A Don Ata Tab

73 views 3 this week
no commentswrite comment
1 2 3 4 5
3 more votes to show rating
add to favorites
launch autoscroll
font size
0
reset
how to read this tab
guitar tuner
×
Best way to learn
"A Don Ata"
Autoscroll
slow
fast
+/-
esc
set tempo
stop
Hola!! quiero mandar esta intro que esta muy buena

E:---8-8-8-8/12-----8-8-8-8/12----8-8-8-8/12--12--10--------------
B:--9-9-9----------9-9-9---------9-9-9--------------12--10-------
G:---------------------------------------------------------------
D:---------------------------------------------------------------
A:---------------------------------------------------------------
E:---------------------------------------------------------------


E:---8-8-8/12-12-10---8-8-8-8/12-12-10---8-8-8-8/12--12-10-------
B:--9-9-9------------9-9-9--------------9-9-9--------------12-10-
G:-----------------------------------------------------------------
D:-----------------------------------------------------------------
A:-----------------------------------------------------------------
E:-----------------------------------------------------------------
Suggest correction
Give kudos to tab author, rate the tab!
1 2 3 4 5
comments
print report bad tab
guest
You may want to rate the tab now too:
select rating
Wanna post a correction for this tab? Suggest correction