Oops, an error
Loading. Please wait.

Cuando Llora Mi Guitarra Tab

34 views 1 this week
no commentswrite comment
1 2 3 4 5
3 more votes to show rating
add to favorites
launch autoscroll
font size
0
reset
how to read this tab
guitar tuner
×
Best way to learn
"Cuando Llora Mi Guitarra"
Autoscroll
slow
fast
+/-
esc
set tempo
stop
Esta es la primer introducción de la canción. 
Se ejecuta en donde dice 'punteo' en la otra trnscripción.

A)_

D:-------------------------------------------4-------
G:-----------------6-6-6-6---------------------------
B:-8-8-8-8-8-8-5-3-5-5-5-5-3-5-3-5-3-5-8-8-8-----5-3-
e:-7-7-7-7-7-7-3-2---------2-3-2-3-2-3-7-7-7---2-----

D:-----------------------------4-3-2-4-----
G:-4-------------------------3---------3---
B:---3-5-3-2-3-2-3-2-3-2-5-2-------------2-
e:-------2-1-2-1-2-1-2-1--------------------

B)_

A:---------------------5-4-2-5-----
D:---------------5-4-2---------4---
G:-----------4-3-----------------4-
B:-----5-3-2-----------------------
e:-3-2-----------------------------

Punteo final: Parte a)_ +

B:-4-5------------------------
e:-----2-2/3-2/3-5-4-3-5-3-2-- y repite parte a), y se pierde
Suggest correction
Give kudos to tab author, rate the tab!
1 2 3 4 5
comments
print report bad tab
guest
You may want to rate the tab now too:
select rating
Wanna post a correction for this tab? Suggest correction