Oops, an error
Loading. Please wait.

El Que Toca Nunca Baila Tab

27 views 1 this week
no commentswrite comment
1 2 3 4 5
3 more votes to show rating
add to favorites
launch autoscroll
font size
0
reset
how to read this tab
guitar tuner
×
Best way to learn
"El Que Toca Nunca Baila"
Autoscroll
slow
fast
+/-
esc
set tempo
stop
Esta es la introducción de la canción:

A)_

G:-------------14-11-11-12-13-14-11----12--
B:-12-------12----------------------12-----
e:----14-11--------------------------------

Repite parte a) + :

A:-----------------------------------------------10--9-7-
D:--------------------------9-8-9--------7-8-9-7---------
G:--------------------------------8----9-----------------
B:------9--------9--------9----------7-------------------
e:-10\7---7-10\7---7-10\7--------------------------------

E:-7-----
A:-9-----
D:-7-----
G:-8--12-
B:-7--12-
e:-7--12-
Suggest correction
Give kudos to tab author, rate the tab!
1 2 3 4 5
comments
print report bad tab
guest
You may want to rate the tab now too:
select rating
Wanna post a correction for this tab? Suggest correction