Oops, an error
Loading. Please wait.

Enero Tab

29 views 1 this week
no commentswrite comment
1 2 3 4 5
3 more votes to show rating
add to favorites
launch autoscroll
font size
0
reset
how to read this tab
guitar tuner
×
Best way to learn
"Enero"
Autoscroll
slow
fast
+/-
esc
set tempo
stop
G D G D G

E:-------------------8--8--8--10-10-10-8--10-10-10----------|
B:------------10-12--10-10-10-12-12-12-10-12-12-12-12-11-12-|
G:----9-11-12--------------------------------------12-11-12-|
D:-12-------------------------------------------------------|
A:----------------------------------------------------------|
E:----------------------------------------------------------|riff01

E:-8-7-8-7-5----------------------|
B:------------8-7-7-5-5-----------|
G:----------------------7-7-5-5---|
D:------------------------------9-|
A:--------------------------------|
E:--------------------------------|

riff01

E:-8-7-8-7-5--------10-9-8-7-----------------------------------------------------|
B:------------8-7------------10-8-7-------1-0-3-1-0----------0-3-4-5---5-4-3-----|
G:----------------------------------9-7-------------2-0--2-3---------------------|
D:-------------------------------------------------------------------------------|
A:-------------------------------------------------------------------------------|
E:-------------------------------------------------------------------------------|

G                           E7
 Cuando llueve el invierno

E:-----------0-|
B:---------3---|
G:-------1-----|
D:-0-1-2-------|
           Am
sobre tu ausencia,

E:-----------5---7---8-|
B:---------5---5---5---|
G:-------5-------------|
D:-7-6-7---------------|
                  D
te busco en mis recuerdos

E:-------10-9-10-|
B:-----7---------|
G:---7-----------|
D:-7-------------|
      G
llamándote...

E:-------------------10----------|
B:------------10-12-----12-------|
G:----9-11-12--------------12----|
D:-12-------------------------12-|
                  E7
Y me mojo en los soles

E:---------0-|
B:---3---3---|
G:-1---1-----|
         Am
de tu presencia

E:-----0-----0-----0-|
B:---1-----1-----1---|
G:-2-----1-----0-----|
                   D
porque siempre hay enero

E:-10-9-8-9-10-|
B:-7-----------|
G:-7-----------|
         G
sobre tu piel...

E:--------------7-8-10-|
B:-------7-8-10--------|
G:-7-8-9---------------|

      G                 E7
Pañuelito verde de adiós
E:--------|
B:--------|
G:--------|
D:-0-1-2--|
        Am
del camalotal,

E:-----0-----0-----0-----0-----0-|
B:---1-----1-----1-----1-----1---|
G:-2-----1-----0-----1-----2-----|
                 D
que se fue en un río de amor

E:-10-10-8-10-10--|
B:-7--7--7-7--7---|
G:-7--7--7-7--7---|
        G
a la soledad...

E:-------------------10-7------------|
B:------------10-12-------12---------|
G:----9-11-12----------------12------|
D:-12----------------------------12--|
                           E7
¿dónde está tu risa feliz?

E:---------7-8-|
B:-------9-----|
G:-7-8-9-------|
                Am
¿dónde?, ¿dónde fue

E:-----------0-|
B:-------0-1---|
G:-2-1-2-------|
                    D
el verano rojo de sol

E:-----------10-------------10-|
B:-----------------------------|
G:-----------------------------|
D:-10-11-12-------10-11-12-----|
             G
que mojo tu piel...?

E:-----3-----7-|
B:---3-----3---|
G:-0-----0-----|

INTRO

                    E7
Estás en el romance

E:-------------------10------|
B:------------10-12------12--|
G:----9-11-12----------------|
D:-12------------------------|
        Am
del duraznero

E:-8/10-10-8-8----------------|
B:-------------12-12-10-------|
G:----------------------12-11-|
D:----------------------------|
                 D
con un gusto silvestre

E:---------|
B:---------|
G:-11-9----|
D:------12-|
           G
de luna y miel

E:--------------7-8-10-10/8/7-|
B:-------7-8-10---------------|
G:-7-8-9----------------------|
                 E7
Y en la lágrima tibia

E:-----0-----0-|
B:---3-----3---|
G:-1-----1-----|
              Am
vuelta en el verso

E:-------5---5-5---5-|
B:-------------------|
G:-0-1-2---2-----2---|
               D
de un amor de verano

E:-7-10-9-8-9-8-10-|
B:-7---------------|
G:-7---------------|
            G
que se me fue...

E:------------7-10-|
B:-----7-8-10------|
G:-7-9-------------|


G                        E7
Pañuelito verde de adiós

E:--------|
B:--------|
G:--------|
D:-0-1-2--|
         Am
del camalotal,

E:-----0-----0-----0-----0-----0-|
B:---1-----1-----1-----1-----1---|
G:-2-----1-----0-----1-----2-----|
                 D
que se fue en un río de amor

E:-10-10-8-10-10--|
B:-7--7--7-7--7---|
G:-7--7--7-7--7---|
            G
a la soledad...

E:-------------------10-7------------|
B:------------10-12-------12---------|
G:----9-11-12----------------12------|
D:-12----------------------------12--|
                         E7
¿dónde está tu risa feliz?

E:--------|
B:-3-4-5--|
G:--------|
D:--------|
               Am
¿dónde?, ¿dónde fue

E:---------------12-11-12-|
B:---------8-7-8----------|
G:-10-9-10----------------|
                       D
el verano rojo de sol

E:-----------10------|
B:-------------------|
G:-------------------|
D:-10-11-12-------10-|
                 C       G
que mojo tu piel...?

E:-------------------10--|
B:------------10-12------|
G:----9-11-12------------|
D:-12--------------------|
A:-----------------------|
E:-----------------------|
Suggest correction
Give kudos to tab author, rate the tab!
1 2 3 4 5
comments
print report bad tab
guest
You may want to rate the tab now too:
select rating
Wanna post a correction for this tab? Suggest correction