Oops, an error
Loading. Please wait.

Luna Lunera Tab

46 views 1 this week
no commentswrite comment
1 2 3 4 5
3 more votes to show rating
add to favorites
×
Save as Personal and add changes to this tab that will be seen only by you. Learn more ›
×
You can save this tab as Personal to edit and correct it or add notes. All changes will be seen only by you. Learn more »
save as personal
new!
launch autoscroll
font size
0
reset
how to read this tab
guitar tuner
Autoscroll
slow
fast
+/-
esc
set tempo
stop
Aca les paso el intro, mas tarde pasare los acordes, ojala les guste.

Intro

1|---------------8-8------|-----3-3-6-6-3-3--------------|
2|-9-8-6-6-6-9-9-----9-6--|-4-4--------------4-----------|
3|------------------------|------------------------------|
4|------------------------|------------------------------|
5|------------------------|------------------------------|
6|------------------------|------------------------------|

1|-----1-1-4-4-1-1---|---------3-3-----------------------|
2|-2-2-------------2-|-1-1-5-5-----5-5-------------------|
3|-------------------|-----------------5-----------------|
4|-------------------|-----------------------------------|
5|-------------------|-----------------------------------|
6|-------------------|-----------------------------------|

1|---------1-1------|------------------------------------|
2|-----2-2-----2----|---------6-6------------------------|
3|-3-3-----------3--|-----5-5-----5-6--------------------|
4|------------------|-6-6--------------------------------|
5|------------------|------------------------------------|
6|------------------|------------------------------------|


1|------------------------|
2|------------------------|
3|-----0-0-1-3-1-0-0------|
4|-5-5---------------3----|
5|------------------------|
6|------------------------|


Rodrigo
Mayo 05, 2011.
Suggest correction
Give kudos to tab author, rate the tab!
1 2 3 4 5
comments
print report bad tab
guest
Wanna post a correction for this tab? Suggest correction