Oops, an error
Loading. Please wait.

Punta Cayasta Tab

20 views 1 this week
no commentswrite comment
1 2 3 4 5
3 more votes to show rating
add to favorites
launch autoscroll
font size
0
reset
how to read this tab
guitar tuner
Autoscroll
slow
fast
+/-
esc
set tempo
stop
Help us to improve Ultimate-Guitar.com Take our survey!
×
E|--1314--14-14-14-14-12-12-11---------------
a|--1516--16-16-16-16-14-14-12---------------
d|--------------------------------------------
g|--------------------------------------------
b|--------------------------------------------
e|--------------------------------------------

E|--1314--14-14-14-14-12-12-11---------------
a|--1516--16-16-16-16-14-14-12---------------
d|--------------------------------------------
g|--------------------------------------------
b|--------------------------------------------
e|--------------------------------------------

E|--11-12-11-9--11-1112-11-9-----------------
a|--12-14-12-11-12-1214-12-11----------------
d|--------------------------------------------
g|--------------------------------------------
b|--------------------------------------------
e|--------------------------------------------

E|--1112--12-12-12-11-11-9--9----------------
a|--1214--14-14-14-12-12-11-11---------------
d|--------------------------------------------
g|--------------------------------------------
b|--------------------------------------------
e|--------------------------------------------

E|--1112--12-12-12-11-11-9-------------------
a|--1214--14-14-14-12-12-11------------------
d|--------------------------------------------
g|--------------------------------------------
b|--------------------------------------------
e|--------------------------------------------

E|--------14--14---------14---12--11--9-7-----
a|--------------------------------------------
d|--1415---15--15--1415---13--11--9---8-----
g|--------------------------------------------
b|--------------------------------------------
e|--------------------------------------------

E|----7-9-911-11-9-7----7-9-911-11-9-7------
a|--------------------------------------------
d|--8---9-911-11-9-8--8---9-911-11-9-8------
g|--------------------------------------------
b|--------------------------------------------
e|--------------------------------------------
Suggest correction
Give kudos to tab author, rate the tab!
1 2 3 4 5
comments
print report bad tab
guest
You may want to rate the tab now too:
select rating
Wanna post a correction for this tab? Suggest correction