Oops, an error
Loading. Please wait.

Que Nadie Sepa Mi Sufrir Tab

version 1
version 1

Whole song

187 views 3 this week
no commentswrite comment
1 2 3 4 5
3 more votes to show rating
add to favorites
×
Save as Personal and add changes to this tab that will be seen only by you. Learn more ›
×
You can save this tab as Personal to edit and correct it or add notes. All changes will be seen only by you. Learn more »
save as personal
new!
launch autoscroll
font size
0
reset
how to read this tab
guitar tuner
Autoscroll
slow
fast
+/-
esc
set tempo
stop
jlve666@
santa cruz frailes
hola pingoman otra pingo aventura

hala soi yo otra vez y les mando este punteo es halgo medio movido
pero suena bien para todos los que gusten de soledad
ah y saludos pa mi gran amor jimenita

E--------------7-------7--------7--------7---------------------------------------
B------------------------------------------10-8---------------------------------
G----------------------------------------------------------------------------
D--9-9-8-9-8-9---8h910---8h9h10---8h9h10------------------------------------------------------------
A----------------------------------------------------------------------------
E----------------------------------------------------------------------------

E------------7---------7--------7----------------------------------------
B----------------------------------------10-8----------------------------
G------------------------------------------------------------------------
D--9-8-9-8-9---8h9h10---8h9h10---8h9h10----------------------------------
A------------------------------------------------------------------------
E------------------------------------------------------------------------

E-----------------------------------------+-9--9--9--9--9--8----8-6-8-6----------------8---12---
B--7h8-8-8-8-8-9-8-8-9-8-8-9-8-8-9-8-8-11-+-11-11-11-11-11-9-9--9-8-9-8--9--8-------9--9--------
G-----------------------------------------+------------------10----------10-9---10--10----------
D-----------------------------------------+-------------------------------------10--------------
A-----------------------------------------+-----------------------------------------------------
E-----------------------------------------+-----------------------------------------------------

E--12-12-12-12-12-15-13-12-15-13-12-15-13-12-15-13-12+-16-15-13-16-15-13-16-15-13-16-15-13-----
B----------------------------------------------------+-----------------------------------------
G----------------------------------------------------+-----------------------------------------
D----------------------------------------------------+-----------------------------------------
A----------------------------------------------------+-----------------------------------------
E----------------------------------------------------+-----------------------------------------

E--15-13-12-15-13-12-15-13-12-16-13-+-13-13-13-13-13-14-13-13-14-13-13-14-13-13-14-13-13-14-13-13-14-13-13-14-13------
B-----------------------------------+---------------------------------------------------------------------------------
G-----------------------------------+---------------------------------------------------------------------------------
D-----------------------------------+---------------------------------------------------------------------------------
A-----------------------------------+---------------------------------------------------------------------------------
E-----------------------------------+---------------------------------------------------------------------------------

E--9--9--9--9--9---8----8-6--8-6-------------------------------------
B--11-11-11-11-11--9-9--9-8--9-8--9--8-------------------------------
G--------------------10-----------10-9--10---------------------------
D---------------------------------------10---------------------------
A-------------------------------------------------------------------
E-------------------------------------------------------------------


bueno eso es todo creo no les escrivo la letra porque ya esta
y el punteo que sale en medio no lo saque todavia
alos fanaticos de soledad que manden el punteo de odiame
y los requintos de todas las canciones que puedan
jimena te amo por siempre aunque el mundo nos ponga distintos caminos
pero asi es la vida bay jimenita te amo---amor esa es la unica verdad
verdaderaç
Suggest correction
Give kudos to tab author, rate the tab!
1 2 3 4 5
comments
print report bad tab
guest
Wanna post a correction for this tab? Suggest correction