Oops, an error
Loading. Please wait.

Que Nadie Sepa Mi Sufrir Tab

version 2
version 2

Whole song

130 views 1 this week
no commentswrite comment
1 2 3 4 5
2 more votes to show rating
add to favorites
launch autoscroll
font size
0
reset
how to read this tab
guitar tuner
×
Best way to learn
"Que Nadie Sepa Mi Sufrir"
Autoscroll
slow
fast
+/-
esc
set tempo
stop
Ahí les va el punteo que trate de transcribirlo
lo más simple que pude, de todas maneras la última
parte se complica un poco si no tienen una guitarra con corte.
Disculpen si el punteo quedo medio cortado pero no se me permitía
poner más de 75 caracteres por línea.


   MIm          SI7                         MIm

E-------------8-------8--------8--------8------------
B------------------------------------------11-9------
G----------------------------------------------------
D--10-10-9-10----8h910---8h9h10---8h9h10-------------
A----------------------------------------------------
E----------------------------------------------------

                SI7                          MIm

E---------------8---------8--------8-------8---------
B--------------------------------------------11-9----
G----------------------------------------------------
D--10-9-10-9-10----8h9h10---8h9h10---8h9h10----------
A----------------------------------------------------
E----------------------------------------------------

      MI7                            LAm

E------------------------------------6---------------
B--6-5-6-5-6-7-6-5-7-6-5-7-6-5-7-6-5-----------------
G----------------------------------------------------
D----------------------------------------------------
A----------------------------------------------------
E----------------------------------------------------

                  D07       SI7               MIm

E--9--9--9--9--9--9--9-------8---8-6---------8-13-
B--11-11-11-11-11-11-11--8/9---9-----9-8-6-9------
G-------------------------------------------------
D-------------------------------------------------
A-------------------------------------------------
E-------------------------------------------------

      SI7

E--12-12-12-12-12-12-12-15-13-12-15-13-12-15-13-12-15-12-15-13-12-
B------------------------------------------------------------------
G------------------------------------------------------------------
D------------------------------------------------------------------
A------------------------------------------------------------------
E------------------------------------------------------------------


  DO7                                SI7

E-16-15-13-16-13-16-15-13-16-15-13-15-13-12-15-13-12-15-13-12-
B-------------------------------------------------------------
G-------------------------------------------------------------
D-------------------------------------------------------------
A-------------------------------------------------------------
E-------------------------------------------------------------


                  MIm          MI7

E--15-12-15-12-16-13-13---13-12-13-12-13-14-12-13-14-12----
B----------------------------------------------------------
G----------------------------------------------------------
D----------------------------------------------------------
A----------------------------------------------------------
E----------------------------------------------------------

                        LAm

E--13-14-12-13-14-12-13-14-13---
B-------------------------------
G-------------------------------
D-------------------------------
A-------------------------------
E-------------------------------

               DO7          SI7               MIm

E--9--9--9--9--9--9--9-------8---8-6---------8-13-----------
B--11-11-11-11-11-11-11--8/9---9-----9-8-6-9----------------
G-----------------------------------------------------------
D-----------------------------------------------------------
A-----------------------------------------------------------
E-----------------------------------------------------------

Simbología:

/: slide
h: Hammer

El tema está con transporte en el primer traste
ya que sino les va a sonar corrido cuando lo quieran
tocar arriba de la canción.


        MIm             MI7         LAm
No te asombres si te digo lo que fuiste
       RE7                  SOL
un ingrato con mi pobre corazón,
            SI7                     MIm
porque el fuego de tus lindos ojos negros
      DO7                     SI7
alumbraron el camino de otro amor.

ESTRIBILLO:

      MIm           MI7         LAm
Y pensar que te adoraba tiernamente
     RE7                       SOL
que a tu lado como nunca me sentí,

SI7                  MIm
y por esas cosas raras de la vida,
        DO7        SI7         MIm
sin el beso de tu boca yo me vi.


              RE7
Amor de mis amores

Vida mía...
        SOL
que me hiciste

que no puedo
      RE
consolarme
                  SOL
sin poderte contemplar
                SI7                   MIm
ya que pagaste mal a mi cariño tan sincero,
               DO7
lo que conseguirás
                        SI7
que no te nombre nunca más...


               RE7
Amor de mis amores

SI dejaste
        SOL
de quererme,

no hay cuidado
        RE
que la gente
                   SOL
de esto no se enterará...
                SI7                             MIm
qué gano con decir que un gran amor cambió mi suerte
                DO7
se burlarán de mí;
            SI7          MIm
"Que nadie sepa mi sufrir"   (se repite 3 veces y en la
                            última hace Mim Do Re Si7 Mim Si7 Mim)

Sólo queda escuchar la canción para sacar bien el rasgueo de vals.
Ante cualquier duda envíenme un mail a masterseba83@
Suggest correction
Give kudos to tab author, rate the tab!
1 2 3 4 5
comments
print report bad tab
guest
You may want to rate the tab now too:
select rating
Wanna post a correction for this tab? Suggest correction