Oops, an error
Loading. Please wait.

Si De Cantar Se Trata Tab

31 views 1 this week
no commentswrite comment
1 2 3 4 5
3 more votes to show rating
add to favorites
launch autoscroll
font size
0
reset
how to read this tab
guitar tuner
Autoscroll
slow
fast
+/-
esc
set tempo
stop
INTRO:
A D A D

       G       D          A            D
E:-----------3-2-3-2-------2-0-------0-------|
B:---------3---------3---3-----3-2-3---3-2-3-|
G:-----0-4-------------4---------------------|
D:-3-4---------------------------------------|
A:-------------------------------------------|
E:-------------------------------------------|

D
Con Vitillo y con Machaco
E               A
yo aprendí las chacareras
G
las cantaba todo el día
A                    D
allá en Salta campo afuera.

Andando por Payogasta
de changuita ya sabía
que aunque nos llenen de gringos
a esto no lo cambiaría.

Me rodeaban las guitarras,
bombos y trajes de gauchos
pucha que lindo les quedan
a todos estos paisanos.

Si ya tenés veinte años
y no sabes decidirte
venite para el folklore
no hace falta que te invite.

E:---------------------------------|----------------------------|
B:---------------------------------|----------------------------|
G:-----------------2-0-----0-------|-----------------2-0--------|
D:---------0-2-4-0-----4-2---4-2-0-|---------0-2-4-0-----4-2-0--|
A:---0-2-4-------------------------|---0-2-4--------------------|
E:-3-------------------------------|-3--------------------------|

Me duele si del folklore
dicen que es cosa de viejos
si sos joven prometeme
no aflojarle ni un momento.

Si cantando en las reuniones
por ahí alguno se ríe
no te aflijas, perdonalo
no conoce sus raíces.

Me parece haber oído
decir que se está apagando
con tu mano y con la mía
vamos a seguir tirando.

Si seguís con veinte años
afinando una guitarra
llevate todo el folklore
por donde quiera que vayas.
Suggest correction
Give kudos to tab author, rate the tab!
1 2 3 4 5
comments
print report bad tab
guest
Wanna post a correction for this tab? Suggest correction