Oops, an error
Loading. Please wait.

Dont Give Up On Me Tab

version 1
version 1

Whole song

11,542 views 60 this week
no commentswrite comment
1 2 3 4 5
worth learning
x 3
add to favorites
launch autoscroll
font size
0
reset
how to read this tab
guitar tuner
Tab Pro tools
  • play this tab
  • loop segment
  • change instrument
  • show fretboard
  • metronome
Autoscroll
slow
fast
+/-
esc
set tempo
stop
Contributor
Difficulty
novice
SOLOMON BURKE – DON’T GIVE UP ON ME

By oddos aka zappy the koala

Here's the pattern...enjoy!

Intro

Bb
---------------------------------------------------------------------------|
-------3-----------3-4-3-----------3-----------3---------------------------|
-----3---3-------3-------3-------3---3-------3---3-------------------------|
---3-------3---3-----------3---3-------3---3-------3-----------------------|
-1-----------1---------------1-----------1---------------------------------|
---------------------------------------------------------------------------|

Verse
Bb                          D                     F#+A             G#
------------------------------------------------------------------------------|
-------3-----------3-----------7-----------7------------3----------------3----|
-----3---3-------3---3-------7---7-------7---7--------2----2----------5----5--|
---3-------3---3-------3---7-------7---7-------7---4----------4----4--------4-|
-1-----------1-----------5-----------5----------------------------------------|
-------------------------------------------------5---------------4------------|

Cm                                   A#              D            Gm
--------------------------2---------------1--------------------------3-------|
--------5--------------4-----4---------3----3-----------7----------3---3-----|
------5---5---------3-----------3----3--------3-------7---7------3-------3-0-|
----4-------4----4-----------------3----------------7-------7--5-------------|
--3----------------------------------------------5---------------------------|
-----------------------------------------------------------------------------|

Chorus

  G             Cm             F#      FM7      Bb
-------3---------------------------------------------------------------------|
-----3---3-----------4-------------------------------------------------------|
---4-------4-------3----3----------------------------------------------------|
-5---------------5--------5--------------------------------------------------|
---------------3------------3------------------------------------------------|
-----------------------------------------------------------------------------|


Bb               D                          F#/A
If I fall short, if I don't make the grades/
                                            G#
If your expectations aren't met in me today/
There is always tomorrow, or tomorrow night/
Hang in there baby, sooner or later/
I know ill get it right,

Please, don't give up on me/
Oh please don't give up on me/
I know its late, late in the game/
But my feelings, my true feelings/
Haven't changed/
Here in my heart/

I know, I know I was wrong, wrong wrong, wrong, wrong, wrong/
I'd like to make a mends for the love that I never, ever, ever, ever shown/
Just don't give up on me, every word is true/

I'll give you my everything, all of my love,all of my love, all of my love love love/
Just don't give up on me/
Oh please, please, please/
Don't give up on me.

I don't want you to/
I know its late, but wait, please, please, please, please/
Don't give up on me/
Promise, will you promise, will you promise me/
Please don't give up on me/

We can make it if we try/
I'm gonna hold on, hold on with me/
And don't give up on me, oh-ooh, -oohohoooh -baby/
Oh baby, Oh baby, please, don't-give-up-on-me/
Whatever you do, we gonna make it, gonna make it through/
Don't you give up on me, please, please, please.... Promise me/
Don't-give-up-on-me.
comments
We did not receive enough feedback on this tab! Please rate:
print report bad tab
1 2 3 4 5
I want to post or [tab]
guest
You may want to rate the tab now too:
select rating
Please do not post tabs as comments. Select "correction" instead!