Oops, an error
Loading. Please wait.

Dont Give Up On Me Tab

version 2
version 2

Whole song

6,214 views 18 this week
1 commentread comment
1 2 3 4 5
x 5
add to favorites
launch autoscroll
font size
0
reset
how to read this tab
guitar tuner
Autoscroll
slow
fast
+/-
esc
set tempo
stop
Help us to improve Ultimate-Guitar.com Take our survey!
×
Difficulty
intermediate
Hi there, this is my first tab, after I saw it on a website and realised
it was wrong, so here it is changed and (hopefully) slightly better


E------------------------------------------------------------------------|
B--------3-----------3h4r3-----------3-----------3-----------3-----------|
G------3---3-------3-------3-------3---3-------3---3-------3---3---------|
D----3-------3---3-----------3---3-------3---3-------3---3-------3-------|
A--1-----------1---------------1-----------1-----------1-----------1-----|
E------------------------------------------------------------------------|
                                                 If I fall short...
If I don't make the grades...

E------------------------------------------------------------------------|
B--------3-----------3-----------3-----------3-----------3---------------|
G------2---2-------2---2-------5---5-------4---4-------4---4-------------|
D----4-------4---4-------4---4-------4---3-------3---3-------3-----------|
A------------------------------------------------------------------------|
E--5-----------5-----------4-----------3-----------3---------------------|
                     If your expectations aren't met in me today...
There's always..

E-------------------------------------------------------------1----------|
B--------4h6r4-----------4-----------7-----------7----------3---3--------|
G------3-------3-------3---3-------8---8-------8---8------3-------3------|
D----5-----------5---5-------5---8-------8---8-------8--3----------------|
A--3---------------3-----------6-----------6-----------------------------|
E------------------------------------------------------------------------|
Tomorrow...           Or tomorrow night....      Hang in there Baby...

E--------2-----------3---------3-3---------------------------3-----------|
B------3---3-------3---3-----3-----3---------4h6-----------4---4---------|
G----2-------2---3---------4---------4-----3-----3-------3-------3-------|
D--4-----------5---------5---------------5---------5---5-----------------|
A--------------------------------------3-------------3-------------------|
E------------------------------------------------------------------------|
      I know I'll get it right..   Please don't give up on me, oh please
don't give...

E----2h4r2---------------6-------4---------------3---5s7-7---------------|
B--------------1--------------------6h8r6--------------------------------|
G------------2------5h7-----4h5-----------5--3h4-------------------------|
D--4-------3-------------------------------------------------------------|
A------------------------------------------------------------------------|
E------------------------------------------------------------------------|
   Up on me, I know it's late, Late in the game..But my feelings, my true
feelings, Haven't changed..

E------------------------------------------------------------------------|
B----------4h6r4-----------4---------4s6--5--4---------------------------|
G--------3-------3-------3---3-------5s7--6--5---------------------------|
D------5-----------5---5-------5-----------------------------------------|
A----3---------------3---------------------------------------------------|
E------------------------------------------------------------------------|
Here in my heart


After 'Please Please' in the second chorus play this:- (if you are having
any trouble just look up the song and you'll see where it fits in)

E--8s10---8-6---|--6s8---6-4---|-------4-----|---5h7-7--------------------|
B---------------|--------------|-------------|----------------------------|
G--9s11---9-7---|--7s9---7-5---|---3h4---5---|----------------------------|
D---------------|--------------|-------------|----------------------------|
A---------------|--------------|-------------|----------------------------|
E---------------|--------------|-------------|----------------------------|


Song Lyrics

If I fall short, if I don't make the grades/
If your expectations aren't met in me today/
There is always tomorrow, or tomorrow night/
Hang in there baby, sooner or later/
I know ill get it right,

Please, don't give up on me/
Oh please don't give up on me/
I know its late, late in the game/
But my feelings, my true feelings/
Haven't changed/
Here in my heart/

I know, I know I was wrong, wrong wrong, wrong, wrong, wrong/
I'd like to make a mends for the love that I never, ever, ever, ever shown/
Just don't give up on me, every word is true/

I'll give you my everything, all of my love,all of my love, all of my love love love/
Just don't give up on me/
Oh please, please, please/
Don't give up on me.

I don't want you to/
I know its late, but wait, please, please, please, please/
Don't give up on me/
Promise, will you promise, will you promise me/
Please don't give up on me/

We can make it if we try/
I'm gonna hold on, hold on with me/
And don't give up on me, oh-ooh, -oohohoooh -baby/
Oh baby, Oh baby, please, don't-give-up-on-me/
Whatever you do, we gonna make it, gonna make it through/
Don't you give up on me, please, please, please.... Promise me/
Don't-give-up-on-me.


Thanks, please comment your opinion for me :) Ben Wolff
Suggest correction
comments
print report bad tab
1 comment total.
0 reply
markelhombre 10 Dec 21, 2015 08:46 AM

Very good quality!

guest
You may want to rate the tab now too:
select rating
Wanna post a correction for this tab? Suggest correction