Oops, an error
Loading. Please wait.

Caiste Tab

2 views 1 this week
no commentswrite comment
1 2 3 4 5
3 more votes to show rating
add to favorites
launch autoscroll
font size
0
reset
how to read this tab
guitar tuner
Autoscroll
slow
fast
+/-
esc
set tempo
stop
Help us to improve Ultimate-Guitar.com Take our survey!
×
Colaboración Mario Perez map30@ (ThundeR)

Esta es la version original de esta cancion

Intro:

1------------------------------------------------
2------------------------------------------------
3-------0-0----------0-0---------0-0--------0----
4-----0----0-------0-----0-----0----9-----0---0--
5---9--------9---9-----------9----------9--------
6-7------------7-----------7----------7----------


1------------------------------------------------
2------------------------------------------------
3------------------------------------------------
4-0---0-----0---0-----0-----0---0----------------
5-9---5-5-5-5-5-5/----9-9-9-9-9-9----------------
6-7---3-3-3-3-3-3/----7-7-7-7-7-7----------------


1------------------------------------------------
2------------------------------------------------
3------------------------------------------------
4-0---0-----0---0-----0-----0---0----------------
5-9---5-5-5-5-5-5/----9-9-9-9-9-9----------------
6-7---3-3-3-3-3-3/----7-7-7-7-7-7----------------


1------------------------------------------------
2------------------------------------------------
3---------------------0-0------------------------
4-----0------0------0-----0----------------------
5---5------7------9---------9--------------------
6-3------5------7--------------------------------


1------------------------------------------------
2------------------------------------------------
3------------------------------------------------
4-----------------2------------------------------
5---9----7----5---2------------------------------
6-7----5----3-----0------------------------------

 Aveces caemos y pensamos que no hay salida paro ahi esta Cristo
 para darnos la vida...
 Ahhhhhhhhhhhhh   aahhhhhhhhhhhh aaaaahhhhhhhhhhh!!!!!!!


 MIm                 DO                        
 Te encuentras solo sin nadie con quien hablar
 MIm                             DO
 te encuentras apartado de la sociedad

 SOL                                  LAm    
 Tus buenos amigos no estan en tu dificulatad

 MIm            FA          SOL       LA
 Pues has caido y te has quedado atras

 FA             SOL              LA
 Pues has caido y no puedes escapar

 LA    SOL   FA

Coro
                          
 FA  SOL  LAm   FA     SOL           MIm        LAm
 Caiste caiste las redes de este mundo te han atrapado 
  
 FA      SOL                       MIm      LAm
 Caiste caiste y en un hoyo profundo estas quedado

 FA   SOL   LAm 
 Caiste ehhhh!!!
 
 LA   SOL   FA

Solo

 SOL   LAm

 FA   SOL   MIm

 LAm   FA  SOL   MIm


Coro


 MIm                   DO                        
 Te sientes confundido ya no sientes estar vivo

 MIm                             DO
 La gente te dice que estas perdido 

 SOL                                  LAm    
 Te sientes turbado ya no sientes la cabeza

 MIm        FA         SOL       LA
 Pues las drogas y el alcohol de ti han hecho preza


 LA    SOL   FA

Coro
                          
 FA  SOL  LAm   FA     SOL           MIm        LAm
 Caiste caiste las redes de este mundo te han atrapado 
  
 FA      SOL                       MIm      LAm
 Caiste caiste y en un hoyo profundo estas quedado

 FA   SOL   LAm 
 Caiste ehhhh!!!
 
 LA   SOL   FA

    Caiste!!!

 FA    SOL   MIm    LAm


 FA                          SOL          MIm       LAm
 Pero Cristo no se olvida de ti y en tu ayuda el asiste

 FA              SOL            MIm  LAm
 Te da su mano y de nueva vida te viste

   FA     SOL     LAm    FA     SOL    MIm          LAm       
 Porque caiste caiste y del hoyo que estas Jesus te sacara

 FA         SOL    LA   LA  SOl   FA
 Porque caiste caiste caiste caiste!!!!

 FA          SOL           MIm


 visita 
Suggest correction
Give kudos to tab author, rate the tab!
1 2 3 4 5
comments
print report bad tab
guest
You may want to rate the tab now too:
select rating
Wanna post a correction for this tab? Suggest correction