Oops, an error
Loading. Please wait.

Sombras Tab

by Sombra
32 views 1 this week
no commentswrite comment
1 2 3 4 5
3 more votes to show rating
add to favorites
launch autoscroll
font size
0
reset
how to read this tab
guitar tuner
×
Best way to learn
"Sombras"
Autoscroll
slow
fast
+/-
esc
set tempo
stop
Colaboración Mario Perez map30@ (ThundeR)

Esta es la version para guitarra 

Intro:


1-----0-----------3--1--0--------------
2---1---1---1---3---------1-3-1-0------
3-2-------2----------------------------
4--------------------------------------
5--------------------------------------
6--------------------------------------

 MIm      FA#m   SOL      FAm
 Caminaba Por un oscuro callejon

 FA#m  SOL    FA#m   SOL      FAm
 No veia nada solo dolor y confucion

  MIm              MIm
 Pero una luz ilumino mi corazon

   FAm            SOL        
 y mire hasta el suelo y vi lo que quedo...

1----------------------------------
2----------------------------------
3----------------------------------
4-----4-4----------5-5-------------
5---4-----4------5-----5-----------
6-2---------2--3---------3---------

1----------------------------------
2----------------------------------
3----------------------------------
4-----4-4----------5-5-------------
5---4-----4------5-----5-----------
6-2---------2--3---------3---------

 MIm   
 Quedaron Sombras de mi vida 
              MIm
 Sombras en el suelo  sombras...

 FA#m     SOL  
 Sombras de mi vida 

 FA#m             SOL
 Sombras en el suelo  sombras...
 
 1----------------------------------
 2----------------------------------
 3----------------------------------
 4-----4-4----------5-5-------------
 5---4-----4------5-----5-----------
 6-2---------2--3---------3---------
 Para que no me olvidara en el suelo yo miraba

 Sombras

 La imagen de Jesus
  
     MIm       MIm
1----------------------------------
2----------------------------------
3----------------------------------
4-----4-4----------5-5-------------
5---4-----4------5-----5-----------
6-2---------2--3---------3---------
 
 FA#m       SOL
 Sombras de mi vida 

 FA#m           SOL
 Sombras en el suelo  sombras...

 FA#m        SOL     FA#m     SOL            MIm
 Porque en mi vida tu estabas pero Jesus la ilumino

 Sombras!!!!

 Sombras de vida
 1----------------------------------
 2----------------------------------
 3----------------------------------
 4-----4-4----------5-5-------------
 5---4-----4------5-----5-----------
 6-2---------2--3---------3---------

 Yo que pensaba que ya nada quedaba

 1----------------------------------
 2----------------------------------
 3----------------------------------
 4-----4-4----------5-5-------------
 5---4-----4------5-----5-----------
 6-2---------2--3---------3---------

 Yo que pensaba que nadie me amaba

 MIm                     MIm                   MIm
 Hasta que El llegó a mi... y con su Luz me iluminó

          MIm
 Y ahora solo queda...

  MIm
 Sombras 
  MIm
 De mi vida sombras en el suelo

 Sombras
 FA#m                    SOL    FA#m     SOL
 Para que no me olvidara en el suelo yo miraba Sombras

 FA#m   SOL    FA#m
 La Sombra de Jesus!!!

 SOL      FAm         SOL                         MIm
 Sombras de mi vida  sombras en el suelo        Sombras

 Porque en mi vida tu estabas pero Jesus la ilumino
 
 1--------------------------------
2---------------------------------
3---------------------------------
4-----4-4----------5-5------------
5---4-----4------5-----5----------
6-2---------2--3---------3--------

           Sombras     Sombras       Sombras

 FA#m       SOL           MIm
 Sombras de vida      woaaaaaahhh!!!!!!

 FA#m       SOL            MIm
 No mas oscuridad    ahora ando en Luz

             MIm
    woaaaaahhhhhhhh!!!!!
 
   MIm   MIm   MIm

Para esta cancion debes usar un metal zone o cualquier Distorsion parecido!!
Suggest correction
Give kudos to tab author, rate the tab!
1 2 3 4 5
comments
print report bad tab
guest
You may want to rate the tab now too:
select rating
Wanna post a correction for this tab? Suggest correction