Oops, an error
Loading. Please wait.

Besos De Fuego Tab

by Sombras
25 views 3 this week
no commentswrite comment
1 2 3 4 5
3 more votes to show rating
add to favorites
launch autoscroll
font size
0
reset
how to read this tab
guitar tuner
×
Best way to learn
"Besos De Fuego"
Autoscroll
slow
fast
+/-
esc
set tempo
stop
Este tema es con Jorge Avila.
Les paso el intro que tambien lo toca el bajo.


e|-----------------------------|------------------------|
b|--5--6--5-----5--------------|--------------5---------|
g|-----------7-----5-5---------|--5--7-7-7-7-----5------|
D|----------------------2---4--|--------------------7---|
A|-----------------------------|------------------------|
E|-----------------------------|------------------------|


e|---------------------------|--------------------------|
b|--5--6--5-----5------------|---------------5?--8/10---|
g|-----------7-----5-5-------|--5--7-7-7-7--------------|
D|----------------------2--4-|--------------------------|
A|---------------------------|--------------------------|
E|---------------------------|--------------------------|


e|-------------------|------------------|--3-3-----3-----|
b|--8--10-----8--10--|--8--10-----8--10-|-------6-----3--|
g|---------9---------|---------9--------|----------------|
D|-------------------|------------------|----------------|
A|-------------------|------------------|----------------|
E|-------------------|------------------|----------------|


e|-----------------|-----------------|--5-5-----5-------|
b|--6--8-----6--8--|--6--8-----6--8--|-------8-----5----|
g|--------7--------|--------7--------|------------------|
D|-----------------|-----------------|------------------|
A|-----------------|-----------------|------------------|
E|-----------------|-----------------|------------------|


Gracias.
Rodrigo.
Diciembre 15,2010
Suggest correction
Give kudos to tab author, rate the tab!
1 2 3 4 5
comments
print report bad tab
guest
You may want to rate the tab now too:
select rating
Wanna post a correction for this tab? Suggest correction