Oops, an error
Loading. Please wait.

Boquita De Caramelo Tab

by Sombras
164 views 3 this week
no commentswrite comment
1 2 3 4 5
3 more votes to show rating
add to favorites
launch autoscroll
font size
0
reset
how to read this tab
guitar tuner
×
Best way to learn
"Boquita De Caramelo"
Autoscroll
slow
fast
+/-
esc
set tempo
stop
e|-----------------------------|---------------------------5--|
b|----------------6-6-6-6--5---|----------------6-6-6-6--5----|
g|----5---4----4-------------5-|----5---4----4----------------|
D|--7-------5------------------|--7-------5-------------------|
A|-----------------------------|------------------------------|
E|-----------------------------|------------------------------|


e|-----------------13-13-13-13-12----|-----------------13-13-13-13-12-17-|
b|----13--12----12----------------13-|----13--12----12-------------------|
g|-14---------12---------------------|-14--------12----------------------|
D|-----------------------------------|-----------------------------------|
A|-----------------------------------|-----------------------------------|
E|-----------------------------------|-----------------------------------|


Pichi.
yopichi89@
Suggest correction
Give kudos to tab author, rate the tab!
1 2 3 4 5
comments
print report bad tab
guest
You may want to rate the tab now too:
select rating
Wanna post a correction for this tab? Suggest correction