Oops, an error
Loading. Please wait.

Dime Amor Tab

by Sombras
25 views 1 this week
no commentswrite comment
1 2 3 4 5
3 more votes to show rating
add to favorites
launch autoscroll
font size
0
reset
how to read this tab
guitar tuner
×
Best way to learn
"Dime Amor"
Autoscroll
slow
fast
+/-
esc
set tempo
stop
Este es el intro de Dime Amor, espero que les sirva.

e|-----------|-----------------|-------|--------------|--------|
b|-----------|-----------6-----|-------|----------6---|--------|
g|--7--8--7--|--7-5-5-5-----8--|-7-8-7-|-7-5-5-5----8-|-7------|
D|-----------|-----------------|-------|--------------|---5-5--|
A|-----------|-----------------|-------|--------------|--------|
E|-----------|-----------------|-------|--------------|--------|


e|-----------|--------------13-----|-----------|------------13-|
b|--15-16-15-|-15--13-13-13----16--|--15-16-15-|-15-13-13-13---|
g|-----------|---------------------|-----------|---------------|
D|-----------|---------------------|-----------|---------------|
A|-----------|---------------------|-----------|---------------|
E|-----------|---------------------|-----------|---------------|


e|--------------|
b|-15-----------|
g|----12-12-----|
D|--------------|
A|--------------|
E|--------------|


e|--8-------|--8-8--------|-10-------|--10--10-------|
b|----10----|------10-----|----11----|---------11----|
g|-------10-|---------10--|-------12-|------------12-|
D|----------|-------------|----------|---------------|
A|----------|-------------|----------|---------------|
E|----------|-------------|----------|---------------|


e|--8-------|-8-8-------|--8-6-|--10-10-8-8--6-6----|
b|----10----|-----10----|------|------------------8-|
g|-------10-|--------10-|------|--------------------|
D|----------|-----------|------|--------------------|
A|----------|-----------|------|--------------------|
E|----------|-----------|------|--------------------|


Min: (1:44)

e|-------------10?9-|
b|-11-10?8--11------|
g|------------------|
D|------------------|
A|------------------|
E|------------------|

Gracias.
Rodrigo, Diciembre 13,2010
Suggest correction
Give kudos to tab author, rate the tab!
1 2 3 4 5
comments
print report bad tab
guest
You may want to rate the tab now too:
select rating
Wanna post a correction for this tab? Suggest correction