Oops, an error
Loading. Please wait.

La Mala Gata Tab

by Sombras
63 views 1 this week
no commentswrite comment
1 2 3 4 5
3 more votes to show rating
add to favorites
launch autoscroll
font size
0
reset
how to read this tab
guitar tuner
×
Best way to learn
"La Mala Gata"
Autoscroll
slow
fast
+/-
esc
set tempo
stop
Bueno los acordes ya estaban, faltaba el punteo completo de la cancion


Intro: Sobre base Am - G

Punteo 1
Punteo 2
Punteo 3 (x2)


Punteo 1:

A)
  Am
e--------------------/--------------------/
B-------13--17-17-17-/-------13--17-17-17-/
G-13h14--------------/-13h14--------------/
D--------------------/--------------------/
A--------------------/--------------------/
E--------------------/--------------------/


                   G
e---------------/--13-13-13-----------------/-10~--10~-/
B-------13-17-13/-----------15-15--12-12----/-12~--12~-/
G-13h14---------/------------------------12-/-12~--12~-/
D---------------/---------------------------/----------/
A---------------/---------------------------/----------/
E---------------/---------------------------/----------/


B)
  G
e-----------10-10-10-/-----------10-10-10-/
B-------12-----------/-------12-----------/
G-11h12--------------/-11h12--------------/
D--------------------/--------------------/
A--------------------/--------------------/
E--------------------/--------------------/


                   Am
e----------10----/-12-12-12-----------/--12~---/
B-------12----12-/----------13-13-----/--10~---/
G-11h12----------/-----------------14-/--------/
D----------------/--------------------/--------/
A----------------/--------------------/--------/
E----------------/--------------------/--------/


Punteo 2: Lo mismo que el 1 pero mas grave.


A)
  Am                                         G
e-------0-0-0--/-------0-0-0--/-------0----/-1-1-1--------------/-3-/
B-----1--------/-----1--------/-----1---1--/-------3-3----------/-0-/
G-1h2----------/-1h2----------/-1h2--------/------------4-4-----/-0-/
D--------------/--------------/------------/----------------5-5-/---/
A--------------/--------------/------------/--------------------/---/
E--------------/--------------/------------/--------------------/---/


B)
  G
e---------------/---------------/------------/------------/
B---------------/---------------/------------/-5-5--------/
G-----4--7-7-7--/-----4--7-7-7--/-----4--7-4-/-----5-5----/
D-4h5-----------/-4h5-----------/-4h5--------/---------7--/
A---------------/---------------/------------/------------/
E---------------/---------------/------------/------------/


Riff 3:

A)
  Am                       G
e-12----------12----------/-13-13------------/
B----13----13----13----13-/--------15-15--12-/
G-------14----------14----/------------------/
D-------------------------/------------------/
A-------------------------/------------------/
E-------------------------/------------------/


B)
  G                         Am
e-10----------10----------/-12-12-------------/
B----12----12----12----12-/--------13-13------/
G-------12----------12----/----------------14-/
D-------------------------/-------------------/
A-------------------------/-------------------/
E-------------------------/-------------------/


----------------------------------------------------------------------

Parte cantada:


Am
Me encontre una gata
tirada en la calle
tiritando de frio
          G
y mojada bajo la lluvia


Punteo 4:

  G
e-10----------10----------10-10-----------/
B----12----12----12----12-------12-12-----/
G-------12----------12----------------12--/
D-----------------------------------------/
A-----------------------------------------/
E-----------------------------------------/


G
la tome en mis brazos
LA Abrigue en MI cuerpo
le brinde cariño
                Am
y la lleve corriendo a mi casa


Punteo 5:

  Am
e-12----------12-----------12-12------------/
B----13----13----13----13---------13-13-----/
G-------14----------14-------------------14-/
D-------------------------------------------/
A-------------------------------------------/
E-------------------------------------------/

Am
esa hermosa gata
me ha salido ingrata
falsa, atrevida,
           G            Punteo 4
mal agradecida y coqueta


G
no toma su leche
llora todo el dia
se busco otro gato
             Am
y me araña toda la noche


Punteo 3: (x2)


Estribillo:


Am
donde yo dormia
      G
encontre a esa ingrata
                         Am
no quiero araño como arañon de gata
                         G
para que seguir con una mala gata
                         Am
vete de una vez que tu cariño mata


Punteo 3 (x2)


Am
donde yo dormia
      G
encontre a esa ingrata
                         Am
no quiero araño como arañon de gata
                         G
para que seguir con una mala gata
                         Am
vete de una vez que tu cariño mata


Repite todo


aguante la del termo 
Suggest correction
Give kudos to tab author, rate the tab!
1 2 3 4 5
comments
print report bad tab
guest
You may want to rate the tab now too:
select rating
Wanna post a correction for this tab? Suggest correction