Oops, an error
Loading. Please wait.

La Ventanita Tab

version 1
version 1

Whole song

by Sombras
61 views 1 this week
no commentswrite comment
1 2 3 4 5
3 more votes to show rating
add to favorites
×
Save as Personal and add changes to this tab that will be seen only by you. Learn more ›
×
You can save this tab as Personal to edit and correct it or add notes. All changes will be seen only by you. Learn more »
save as personal
new!
launch autoscroll
font size
0
reset
how to read this tab
guitar tuner
Autoscroll
slow
fast
+/-
esc
set tempo
stop
INTRO:
             B                   G#m
E|--------------------------------------------
a|-9-11-------------9--9-11-------------11----
d|-----8-9-11---11---------8-9-11---11--------
g|-----------9-8--8--------------9-8--8-------
b|--------------------------------------------
e|--------------------------------------------
             C#m                   F#7
E|--------------------------------------------|
a|-11-----------------9--11-------------------|
d|---8-9-11----------------8-9-11-----------8-|
g|---------8-11-9-8-9------------8-11-9-8-9---|
b|--------------------------------------------|
e|--------------------------------------------| REPITE.
        B                     G#m 
E|-----------------------------------------------
a|-----------------------------------------------
d|---------------9-----9----------------9-----9--
g|-9-9-9-8-8-8-6---6h8----9-9-9-8-8-8-6---6h8----
b|-----------------------------------------------
e|-----------------------------------------------
          C#m                      F#7
E|--------------------------------------------------
a|--------------------------------------------------
d|------------------11--11-------------------11--11-
g|-11-11-11-9-9-9-8---8-----11-11-11-9-9-9-8---8----
b|--------------------------------------------------
e|--------------------------------------------------
         B                     G#m
E|-----------------------------------------------
a|-----------------------------------------------
d|---------------9-----9----------------9-----9--
g|-9-9-9-8-8-8-6---6h8----9-9-9-8-8-8-6---6h8----
b|-----------------------------------------------
e|-----------------------------------------------
          C#m                       F#7                       B
E|----------------------------------------------------------------
a|----------------------------------------------------------------
d|------------------11--11-------------------11-------------------
g|-11-11-11-9-9-9-8---8-----11-11-11-9-9-9-8---8-11---------------
b|-----------------------------------------------------12-9-8-7---
e|--------------------------------------------------11------------


B         G#m   C#m      F#            E          B     B/A#
Desde que me dejaste, la ventanita del amor de me cerro
G#m           C#m          F#7                       B
desde que me dejaste las asucenas han cambiado su color
B         G#m   C#m      F#            E          B     B/A#
desde que me dejaste, la ventanita del amor se me cerro
G#m           C#m            F#7                    B
desde que me dejaste, no hago mas que extrañarte corazon

B  F#7   B
tengo el alma en pedazos
      G#m
ya no aguanto esta pena
      C#m
tanto tiempo sin verte
       F#7
es como una condena
         B 
tengo el alma en pedazos
      G#m
ya no aguanto esta pena 
      C#m
tanto tiempo sin verte
       F#7
es como una condena
       B                                 G#m
es tan bonito tener tu cariño, yo no soy nada si no estoy contigo
    C#m                         F#7
y tenerte siempre conmigo, soy tu abrigo en las noches de frio
       B                                 G#m
es tan bonito tener tu cariño, yo no soy nada si no estoy contigo
    C#m                         F#7          
y tenerte siempre conmigo, soy tu abrigo en las noches de frio

COMO INTRO
Suggest correction
Give kudos to tab author, rate the tab!
1 2 3 4 5
comments
print report bad tab
guest
Wanna post a correction for this tab? Suggest correction