Oops, an error
Loading. Please wait.

Mala Gata Tab

by Sombras
23 views 1 this week
no commentswrite comment
1 2 3 4 5
3 more votes to show rating
add to favorites
launch autoscroll
font size
0
reset
how to read this tab
guitar tuner
×
Best way to learn
"Mala Gata"
Autoscroll
slow
fast
+/-
esc
set tempo
stop
arranca asi

e-----------12-12-12--------------12-12-12------------12--------
b--------13-------------------13-------------------12----13-----
g--13s14---------------13s14-----------------13s14--------------
d---------------------------------------------------------------
a---------------------------------------------------------------
e---------------------------------------------------------------

e--13-13-13-12-10---------------------
b-----------------13-12-10------------
g-------------------------------------
d-------------------------------------
a-------------------------------------
e-------------------------------------

para para para para cn base maestro con base

punteo: lam - sol intercalados

LAm
Me encontre una gata

tirada en la calle

tiritando de frio
               SOL
y mojada bajo la lluvia

SOL
la tome en mis brazos

LA Abrigue en MI cuerpo

le brinde cariño
                  LAm
y la lleve corriendo a mi casa

LAm
esa hermosa gata

me ha salido ingrata
                           SOL
falsa, atrevida, mal agradecida

y coketa

SOL
no toma su leche

llora todo el dia

se busco otro gato
                  LAm
y me araña toda la noche

punteo: lam - sol intercalados

ESTRIBILLO

LAm
donde yo dormia
          SOL
encontre a esa ingrata
                        LAm
no kiero araño como araño d gata
                   SOL
para q seguir con una mala gata
                       LAm
vete d una vez q tu cariño mata

punteo: lam - sol intercalados

estribillo

buen este es basicamente el tema
desp hay como un meneaito
deben ser los mismos acordes tambien
buen este es el tema de la banda del tomate
lo puse en sombras porq no lo supe poner en otro lado
espero q les guste cualkier duda 
Suggest correction
Give kudos to tab author, rate the tab!
1 2 3 4 5
comments
print report bad tab
guest
You may want to rate the tab now too:
select rating
Wanna post a correction for this tab? Suggest correction