Oops, an error
Loading. Please wait.

Para Que Tab

12 views 1 this week
no commentswrite comment
1 2 3 4 5
3 more votes to show rating
add to favorites
launch autoscroll
font size
0
reset
how to read this tab
guitar tuner
×
Best way to learn
"Para Que"
Autoscroll
slow
fast
+/-
esc
set tempo
stop
Este intro lo tocan en el disco con guitarra y teclado y se repite
a lo largo de la cancion.
Por ejemplo se vuelve a repetir a los (0:51 - 1:03)


E|-----------------|-----------------------|--------------------|
B|6-6-6-6-6-5-6-5--|--3--3-3-3-3-3--1------|-6--6--6--6-6--5-6-5|
G|-----------------|-------------------2---|--------------------|
D|-----------------|----------------------3|--------------------|
A|-----------------|-----------------------|--------------------|
E|-----------------|-----------------------|--------------------|


E|------------------------------|
B|--3--3--3--3--3--3--1---------|
G|-----------------------2------|
D|--------------------------3---|  Esta parte la repite 2 veces
A|------------------------------|
E|------------------------------|


E|-1-1-1-1-1-1-0-1-0-|--3--3-3-3-3-3--1-3-1--|
B|-------------------|-----------------------|
G|-------------------|-----------------------|
D|-------------------|-----------------------|
A|-------------------|-----------------------|
E|-------------------|-----------------------|


E|-1-1-1-1-1-1-0-1-0-|--3--3-3-3-3-3--1-3-1--|
B|-------------------|-----------------------|
G|-------------------|-----------------------|
D|-------------------|-----------------------|
A|-------------------|-----------------------|
E|-------------------|-----------------------|


E|-1-1-1-1-1-1-0-1-0-|--3--3-3-3-3-3--1-3-1--|
B|-------------------|-----------------------|
G|-------------------|-----------------------|
D|-------------------|-----------------------|
A|-------------------|-----------------------|
E|-------------------|-----------------------|


E|-1-1-1-1-1-1-0-1-0-|------------------------|
B|-------------------|---5-5-5-5-5-5--3--1----|
G|-------------------|----------------------2-| Esta ultima parte
D|-------------------|------------------------| la repite 2 veces
A|-------------------|------------------------|
E|-------------------|------------------------|

Gracias, Rodrigo.
Diciembre 13, 2010
Suggest correction
Give kudos to tab author, rate the tab!
1 2 3 4 5
comments
print report bad tab
guest
You may want to rate the tab now too:
select rating
Wanna post a correction for this tab? Suggest correction