Oops, an error
Loading. Please wait.

Pega La Vuelta Tab

96 views 1 this week
no commentswrite comment
1 2 3 4 5
3 more votes to show rating
add to favorites
launch autoscroll
font size
0
reset
how to read this tab
guitar tuner
Autoscroll
slow
fast
+/-
esc
set tempo
stop
Help us to improve Ultimate-Guitar.com Take our survey!
×
ES RÁPIDO ESCUCHEN EL CD OK AQUI VA Y LOS ACORDES SON FÁCILES 
 CHEQUENLA BIEN PARA LOS AMANTES DE LA BUENA CUMBIA.... 
 INTRO:
                       
e:------------------------------------------------------------|
B:------------------------------------------------------------|
G:------------------------------------------------------------|
D:---2-4-6--------2-2-4-6-----------1-2-4-----1-1-2-2---------|
A:-4-------4-4--4------------2-2--2-------2-2---------4-4-----|
E:------------------------------------------------------------|
e:---------------------------------------------------------------|
B:---------------------------------------------------------------|
G:---------------------------------------------------------------|
D:---2-4-6--------2-2-4-6-----------1-2-4-----1-1-2-2------------|
A:-4-------4-4--4------------2-2--2-------2-2---------4--4-4-2-4-|
E:---------------------------------------------------------------|
Ahí va el intro es fácil (abajo esta lo mejor de este tema OK )
          
e:--------------------|------------------------|
B:--------------------|------------------------|SE REPITE 2
G:--------------------|------------------------|
D:-6-4---6-6-4---6-4--|-4-2-1-4-4-2-1-4-2------|VECES
A:-----7-------7------|------------------------|
E:--------------------|------------------------|
AQUÍ SUBE UNA OCTAVA ES LO MISMO
         también se repite 2 veces                       para el final   
e:------------------------------|-----------------------|---------------|
B:------------------------------|-----------------------|---------------|
G:-13-11----13-13-11----13-11---|-11-9-8-11-11-9-8-11-9-|--6-6-7-8-9----|
D:-------14----------14---------|-----------------------|---------------|
A:------------------------------|-----------------------|---------------|
E:------------------------------|-----------------------|---------------|


MI        SI         LA          SI 
Como te atreves a golpear mi soledad
MI       SI         LA                  SI 
si la herida que dejaste en mi sigue abierta, ha
MI       SI                LA           SI 
como es eso que quieres de nuevo mi cariño,
MI      SI                 LA           SI      RE#m      SI 
si tu siempre me engañaste igual que un niño.,, oh oh oh oh oh oh oh oh 
Y ahora que quieres que empecemos de nuevo  
es imposible, pues mi amor por ti ya esta muerto
toma tus cartas, tus cosas y nunca te arrepientas 
dame la mano y un beso y pega la vuelta
CORO:

RE#m
Déjame feliz estoy, 
SI 
márchate que así es mejor
RE#m
déjame feliz estoy,
SI 
márchate que así es mejor. (BIS)LAM  RE#m
ES TODO CHANGOS DISFRÚTENLA DUDAS A MI CORREO chundia@
ESCRIBAN SI PARA SABER SI LES SALIO IGUAL Y PORFA DENME EL CREDITO 
SE LOS VOY A AGRADECER CHAUU........
Suggest correction
Give kudos to tab author, rate the tab!
1 2 3 4 5
comments
print report bad tab
guest
You may want to rate the tab now too:
select rating
Wanna post a correction for this tab? Suggest correction