Oops, an error
Loading. Please wait.

Por Que Yo Tab

13 views 1 this week
no commentswrite comment
1 2 3 4 5
3 more votes to show rating
add to favorites
launch autoscroll
font size
0
reset
how to read this tab
guitar tuner
Autoscroll
slow
fast
+/-
esc
set tempo
stop
Este es el intro y solo de la cancion, espero que les sirva.

e|-----------|----------------------|---------|
b|-----------|----------------------|---------|
g|-----------|--------10-9-9--------|---------|
D|--5/7------|-----8----------8-----|--5/7----|
A|--------8--|--10--------------10--|-------8-|
E|-----------|----------------------|---------|


e|--------------------------------------|----------------------|
b|--------------------------------------|--10--8---------------|
g|--------10-9-10--12--10---------------|--10----10-9-10-10/12-|
D|-----8------------------10?10--12--10-|----------------------|
A|--10----------------------------------|----------------------|
E|--------------------------------------|----------------------|


e|-------------------------------|
b|-------------------------------|
g|-------------------------------|
D|--------7--5--5----------------|
A|-----7-----------8--5--3--5----|
E|--5----------------------------|

Rodrigo.
Diciembre 13, 2010
Suggest correction
Give kudos to tab author, rate the tab!
1 2 3 4 5
comments
print report bad tab
guest
You may want to rate the tab now too:
select rating
Wanna post a correction for this tab? Suggest correction