Oops, an error
Loading. Please wait.

Veneno Para Olvidar Tab

by Sombras
81 views 1 this week
no commentswrite comment
1 2 3 4 5
3 more votes to show rating
add to favorites
launch autoscroll
font size
0
reset
how to read this tab
guitar tuner
×
Best way to learn
"Veneno Para Olvidar"
Autoscroll
slow
fast
+/-
esc
set tempo
stop
e----------------------------------------------------------
b---------------------------------------------------------
g-----5--3--3h5-------5--3--3h5------------3--2-------------
d--5------------5---------------5------5--------------------
a----------------------------------------------------------
e----------------------------------------------------------

e------------------------------------------------------
b----6--4--4h6----------4-3---3h4h3-----------------------
g--5------------5----5---------------5--3--3h5--------------
d-----------------------------------------------------------
a---------------------------------------------------------
e-----------------------------------------------------------

e-------------------------------------------------------------
b-------13--11--11h3------13--11--11h13-----------11--10--------
g---12---------------12------------------12---12----------------
d--------------------------------------------------------------
a--------------------------------------------------------------
e-----------------------------------------------------------

e-----13--11--11h13-----------11--10---10h11h10-------------------
b-13-----------------13---13---------------------13--11--11h13---
g----------------------------------------------------------------
d---------------------------------------------------------------
a--------------------------------------------------------------
e-----------------------------------------------------------


e-----13--11--11h13-----------11--10---10h11h10------------------
b-13-----------------13---13---------------------13--11--11h13--
g---------------------------------------------------------------
d---------------------------------------------------------------
a--------------------------------------------------------------
e-----------------------------------------------------------

tecladoo

base de viola en dom - la#

DOm
Para olvidar tu querer chiquita
LA#
para dejarte de amara negrita
SOL#           LA#          RE#
voy a tomar veneno para olvidar

DOm
Y quiero que al morir mis ojos
LA#
no llores por este amor que nunca
SOL#              LA#         DOm
supiste amar supiste corresponder

SOL#           LA#           DOm
Voy a tomar veneno para olvidarte
LA#
no quiero seguir sufriendo
SOL#
quiero olvidar este afecto
LA#                               DOm
quiero morir quiero apargar mi dolor

LA#
Si saber cuanto te quiero
SOL#
si saber cuanto te amo
LA#                                DOm
por que razon por que me niegas tu amor
SOL#           LA#           DOm
voy a tomar veneno para olvidarte
SOL#           LA#           DOm
voy a tomar veneno para olvidar

teclaa base en dom - La#

desp repite la intro del principio
buen aca esta el tema completo
y son los acordes y el punteo esta perfectoo

espero q sirva

 cualkier cosa ;)
Suggest correction
Give kudos to tab author, rate the tab!
1 2 3 4 5
comments
print report bad tab
guest
You may want to rate the tab now too:
select rating
Wanna post a correction for this tab? Suggest correction