Oops, an error
Loading. Please wait.

Que Yo Te Quiero Tab

20 views 1 this week
no commentswrite comment
1 2 3 4 5
3 more votes to show rating
add to favorites
launch autoscroll
font size
0
reset
how to read this tab
guitar tuner
×
Best way to learn
"Que Yo Te Quiero"
Autoscroll
slow
fast
+/-
esc
set tempo
stop
Bueno ps esta es mi primer tab en "publico"
jeje espero les guste y les suene
la cancion es muy facil y es mejor que
la primer version ya que esta es mas "movida"
y tiene un mejor tono encuanto ha lo instrumental
oiganla mucho, pero = hay pedasos
que no se escucan bn en la cancion = son
adornitos que no importan. Asi como la escrbi
esta bn y tambn les va ha sonar muy chevere
y muy bonito...saquenla que
esta muy facil.....emmm ps muchas gracias y..

Chao pues

    G               D/F#              Em               C
e|--------0-----------------0----------------0---------------0----------|
B|--3---3---3---3----3----3---3---3----0---0---0---0---1---1---1---1----|
G|----0-------0---0-----2-------2---2----0-------0---0---0-------0---0--|
D|----------------------------------------------------------------------|
A|-----------------------------------------------------2----------------|
E|--3----------------2-----------------0--------------------------------|

                                                                     X2
    G             D
e|--------3/5-5---2-----2h3-2-----------0---------------0----------|
B|--3---3-----------3---------3---0---0---0---0---1---1---1---1----|
G|----0---------------2---------2---0-------0---0---0-------0---0--|
D|----------------0------------------------------------------------|
A|------------------------------------------------2----------------|
E|--3-----------------------------0--------------------------------|


    G               D/F#              Em               C
e|--------0-----------------0----------------0---------------0----------|
B|--3---3---3---3----3----3---3---3----0---0---0---0---1---1---1---1----|
G|----0-------0---0-----2-------2---2----0-------0---0---0-------0---0--|
D|----------------------------------------------------------------------|X4
A|-----------------------------------------------------2----------------|
E|--3----------------2-----------------0--------------------------------|

La noche entera piensa en ti........


G             D/F#       Em        C    G
desde que te fuiste solo puedo pensar
              D/F#       Em        C    G
que este dolor yo ya no puedo ni llevar
             D/F#       Em        C    G
por que tu ausencia oscurece mi camino
            D/F#       Em              C    C
y me doy cuenta que eres tu mi amor divino

coro:
             C               G
que yo te quiero que yo te adoro
              D/F#               Em
que no hay distancia q haga olvidarte
             C              G
que con tus ojos que me iluminan
         D/F#            Em
la vida entera voy a esperarte


C       G      D/F#      Em
yee yee yee yee SI MI amor              X2


Em        C               G    D
de nuevo juntos kiero sentir
Em          C           G           D
ese primer beso que me hizo a mi feliz


G             D/F#       Em        C    G
esos labios frescos ese fuego lento
              D/F#       Em        C        G
como una princesa se reflejan en tu cuerpo
         D/F#     Em     C    G
tu pelo claro tus ojos verdes
         D/F#     Em      C    G
esa risa loca que me enloquece
             D/F#   Em        C        G
este amor perfecto este canto incierto
           D/F#           Em           C       G
ese amor perfecto solo junto a ti lo siento


          D/F#      Em
Cuando contigo no estoy
              C           G
solo en este mundo solo voy
       D/F#          Em
mi corazon te necesita
             C              G
eres lo mas bello eres mi niñita


          D/F#
y por eso canto
Em           C
y por eso canto yo
G          D/F#
y por eso canto
        Em     Em
esta cancion


coro:
             C               G
que yo te quiero que yo te adoro
              D/F#               Em
que no hay distancia q haga olvidarte
             C              G
que con tus ojos que me iluminan
         D/F#            Em
la vida entera voy a esperarte

           C                 G
que esta niñita que estoy mirando
         D/F#            Em
me tiene loco la estoy amando
           C             G
y sin sus besos no puedo vivir
         D/F#               Em
la necesito siempre junto a mi

 C        G     G  D
yeeeee, ohhhh

(Cambia de tono)

1 voz

            D               A
que yo te quiero que yo te adoro
               E               F#m
que no hay distancia q haga olvidarte
             D              A
que con tus ojos que me iluminan
          E             F#m
la vida entera voy a esperarte


2 voz

Sin ti sera como vivir
sin agua sin aire
sin besos para mi


            D               A
que yo te quiero que yo te adoro
            E              F#m
que con tus besos yo me enamoro
             D             A
asi estemos lejos uno del otro
   E     F#m
yo me comporto
   D       A    E         F#m
vivir sin ti sera como vivir
     D       A
sin agua sin aire
     E         F#m
sin besos para mi


que yo te quiero que yo te adoro
mi niña linda voy ha esperarte
que yo te quiero que yo te adoro
mi niña linda voy ha esperarte
ha esperate,esperarte,esperarte
mi niña lida voy ha esperarte
mi amor mi corazon por toda la vida

que yo te quiero que yo te adoro
que no hay distancia que haga olvidarte
por que la vida la vida entera
mi niña lina voy ha esperarteee...


Lismo muchachos asi acaba la cancion la cancion
la saque ha oido espero que las cosas que uds
no entiendan tambn las saquen asi si hay muchas
dudas escribanme al mail yesterday_fm@hot....
muchas gracias y que la disfruten
Suggest correction
Give kudos to tab author, rate the tab!
1 2 3 4 5
comments
print report bad tab
guest
You may want to rate the tab now too:
select rating
Wanna post a correction for this tab? Suggest correction