Oops, an error
Loading. Please wait.

Loch Ness tab

214 views 1 this week
2 commentsread comments
1 2 3 4 5
2 more votes to show rating
add to favorites
×
Save as Personal and add changes to this tab that will be seen only by you. Learn more ›
×
You can save this tab as Personal to edit and correct it or add notes. All changes will be seen only by you. Learn more »
launch autoscroll
font size
0
reset
how to read this tab
guitar tuner
edit
Autoscroll
slow
fast
+/-
esc
set tempo
stop
Author
Difficulty
Bass intro

E|----------------------------------------| 
B|----------------------------------------| 
G|----------------------------------------| 
D|----------------------------------------| 
A|----------------------------------------|
E|---0000-3333-777-5-7-5-3----------------|   x4

Guitar 

E|----------------------------------------| 
B|----------------------------------------| 
G|----------------------------------------| 
D|----------------------------------------| 
A|---2222-5555-999-7-9-7-5----------------|
E|---0000-3333-777-5-7-5-3----------------|  

Then some a weird solo. The a back to the chorus.  

Thats it pretty much throuch the whole song. It isn't much but it's pretty fun to play. Enjoy

            
            
Suggest correction
Creating personal tab
Creating personal tab
You can edit any tab online and save it as your Personal.

You can edit, replace or remove any tab part or add personal notes – all changes will be seen only by you.

Personal tabs can be accessed anytime from any device, even offline.
Learn more »
Give kudos to tab author, rate the tab!
1 2 3 4 5
comments
print report bad tab
2 comments total.
0 reply
RAWker21 31 Sep 13, 2007 05:00 PM

It was my first one so i picked an easy one. I'm open for suggestions.

0 reply
nirvanaisbetter 141 Mar 31, 2008 09:03 PM

I realy love this song. thank you so much for this.

i personally think it would be easier to play the intro like this, but really, who knows how they do it?

e----------------------------
b-----------------------
g-----------------------
d-----------------------
a-----------222-0-2-0---
e-0-00-3333-----------3-

guest
You may want to rate the tab now too:
select rating
Wanna post a correction for this tab? Suggest correction