Oops, an error
Loading. Please wait.

Someday tab

202 views 1 this week
no commentswrite comment
1 2 3 4 5
2 more votes to show rating
add to favorites
×
Save as Personal and add changes to this tab that will be seen only by you. Learn more ›
×
You can save this tab as Personal to edit and correct it or add notes. All changes will be seen only by you. Learn more »
launch autoscroll
font size
0
reset
how to read this tab
guitar tuner
edit
Autoscroll
slow
fast
+/-
esc
set tempo
stop
Author
Difficulty
This tab is dedicated to the woman with the sunset in her eyes.

This is my first tab so I hope you can all read it.  Im sure everyone can pickup the 
by listening to the song.
x=muted note

e|-------9-----------9-----------9-------9-----------9-----------9-----------|
B|-----------0-----------0-------------------0-----------0-------------------|
G|---------------------------------------------------------------------------|
D|---9-----------9-----------9-------7-----------7-----------7---------------|
A|---------------------------------------------------------------------------|
E|---------------------------------------------------------------------------|

e|-------7-----------7-----------7-------6-----------6-----------6-----------|
B|-----------0-----------0-------------------0-----------0-------------------|
G|---------------------------------------------------------------------------|
D|---6-----------6-----------6-------4-----------4-----------4---------------|
A|---------------------------------------------------------------------------|
E|---------------------------------------------------------------------------|

e|-------4-----------4-----------4-------4-----------4-----------4-----------|
B|-----------0-----------0-------------------0-----------0-------------------|
G|---------------------------------------------------------------------------|
D|---2-----------2-----------2-------2-----------2-----------2---------------|
A|---------------------------------------------------------------------------|
E|---------------------------------------------------------------------------|

e|-------6-----------6-----------6-------6-----------6-----------6-----------|
B|-----------0-----------0-------------------0-----------0-------------------|
G|---------------------------------------------------------------------------|
D|---4-----------4-----------4-------4-----------4-----------4---------------|
A|---------------------------------------------------------------------------|
E|---------------------------------------------------------------------------|


e|-------9-----------9-----------9-------9-----------9-----------9-----------|
B|-----------0-----------0-------------------0-----------0-------------------|
G|---------------------------------------------------------------------------|
D|---9-----------9-----------9-------7-----------7-----------7---------------|
A|---------------------------------------------------------------------------|
E|---------------------------------------------------------------------------|

e|-------7-----------7-----------7-------6-----------6-----------6-----------|
B|-----------0-----------0-------------------0-----------0-------------------|
G|---------------------------------------------------------------------------|
D|---6-----------6-----------6-------4-----------4-----------4---------------|
A|---------------------------------------------------------------------------|
E|---------------------------------------------------------------------------|

e|-------4-----------4-----------4-------4-----------4-----------4-----------|
B|-----------0-----------0-------------------0-----------0-------------------|
G|---------------------------------------------------------------------------|
D|---2-----------2-----------2-------2-----------2-----------2---------------|
A|---------------------------------------------------------------------------|
E|---------------------------------------------------------------------------|

e|-------6-----------6-----------6-------6-----------6-----------6-----------|
B|-----------0-----------0-------------------0-----------0-------------------|
G|---------------------------------------------------------------------------|
D|---4-----------4-----------4-------4-----------4-----------4---------------|
A|---------------------------------------------------------------------------|
E|---------------------------------------------------------------------------|

e|-------7-----------7-----------7-------6-----------6-----------6-----------|
B|-----------0-----------0-------------------0-----------0-------------------|
G|---------------------------------------------------------------------------|
D|---6-----------6-----------6-------4-----------4-----------4---------------|
A|---------------------------------------------------------------------------|
E|---------------------------------------------------------------------------|

e|-------4-----------4-----------4-------4-----------4-----------4-----------|
B|-----------0-----------0-------------------0-----------0-------------------|
G|---------------------------------------------------------------------------|
D|---2-----------2-----------2-------2-----------2-----------2---------------|
A|---------------------------------------------------------------------------|
E|---------------------------------------------------------------------------|

e|-------7-----------7-----------7-------6-----------6-----------6-----------|
B|-----------0-----------0-------------------0-----------0-------------------|
G|---------------------------------------------------------------------------|
D|---6-----------6-----------6-------4-----------4-----------4---------------|
A|---------------------------------------------------------------------------|
E|---------------------------------------------------------------------------|

e|-------4-----------4-----------4-------4-----------4-----------4-----------|
B|-----------0-----------0-------------------0-----------0-------------------|
G|---------------------------------------------------------------------------|
D|---2-----------2-----------2-------2-----------2-----------2---------------|
A|---------------------------------------------------------------------------|
E|---------------------------------------------------------------------------|

e|-------7-----------7-----------7-------6-----------6-----------6-----------|
B|-----------0-----------0-------------------0-----------0-------------------|
G|---------------------------------------------------------------------------|
D|---6-----------6-----------6-------4-----------4-----------4---------------|
A|---------------------------------------------------------------------------|
E|---------------------------------------------------------------------------|

e|------------11-----------------11-----------------7-----------------6------|
B|-------------------0------------------0-----------------0-----------------0|
G|---------------------------------------------------------------------------|
D|-----9-------------------9------------------6-----------------4------------|
A|---------------------------------------------------------------------------|
E|---------------------------------------------------------------------------|

e|-------4-----------4-----------4-----------4-----------4---------------------|
B|-----------0-----------0-----------0-----------0-----------------------------|
G|-----------------------------------------------------------------------------|
D|---2-----------2-----------2-----------2-----------2-------------------------|
A|-----------------------------------------------------------------------------|
E|-----------------------------------------------------------------------------|

e|-------6-----------6----------|
B|-----------0-----------0------|
G|------------------------------|
D|---4-----------4-----------4--|
A|------------------------------|
E|------------------------------|

e|-----------------------------------------------------------------------------|
B|-----------------------------------------------------------------------------|
G|----------------------------------------4-4-4----3-3-3----4-4-4----3-3-3-----|
D|--4-4----4-4-4----4-4-4----4-4-4-------1-1-1----1-1-1----1-1-1----1-1-1------|
A|--2-2----1-1-1----2-2-2----1-1-1---------------------------------------------|
E|-----------------------------------------------------------------------------|

e|-----------------------------------------------------------------------------|
B|-----------------------------------------------------------------------------|
G|--3-3-3----1-1-1----3-3-3----1-1-1-------------------------------------------|
D|--1-1-1----1-1-1----1-1-1----1-1-1-----4-4-4----2-2-2----4-4-4----2-2-2------|
A|----------------------------------------2-2-2----2-2-2----2-2-2----2-2-2-----|
E|-----------------------------------------------------------------------------|

e|-----------------------------------------------------------------------------|
B|-----------------------------------------------------------------------------|
G|-----------------------------------------4-4-4----3-3-3----4-4-4----3-3-3----|
D|4-4-4----4-4-4----4-4-4----4-4-4--------1-1-1----1-1-1----1-1-1----1-1-1-----|
A|2-2-2----1-1-1----2-2-2----1-1-1---------------------------------------------|
E|-----------------------------------------------------------------------------|

e|-----------------------------------------------------------------------------|
B|-----------------------------------------------------------------------------|
G|--3-3-3----1-1-1----3-3-3----1-1-1-------------------------------------------|
D|--1-1-1----1-1-1----1-1-1----1-1-1------4-4-4----2-2-2----4-4-4----2-2-2-----|
A|-----------------------------------------2-2-2----2-2-2----2-2-2----2-2-2----|
E|-----------------------------------------------------------------------------|

e|------------------------------------------------------------------------------|
B|------------------------------------------------------------------------------|
G|-------------------------------------------------- 4-4-3-------------- 4-4-3--|
D|-----------4-4-4---------------4-4-4--------------1-1-1----1-1-1-1---1-1-1----|
A|-2-2-2-2---2-2-1----2-2-2-2---2-2-1----2-2-2-2--------------------------------|
E|------------------------------------------------------------------------------|
     x  x  x  x                      x  x  x  x                      x  x  x  x          
            x  x  x  x

e|-------------------------------------------------------------------------------|
B|-------------------------------------------------------------------------------|
G|----------- 3-3-1---------------3-3-1------------------------------------------|
D|-1-1-1-1---1-1-1----1-1-1-1--- 1-1-1----1-1-1-1---4-4-2---------------4-4-2----|
A|--------------------------------------------------- 2-2-2----2-2-2-2--- 2-2-2--|
E|-------------------------------------------------------------------------------|
     x  x  x  x                      x  x  x  x                       x  x  x  x         
             x  x  x  x

e|------------------------------------------------------------------------------|
B|------------------------------------------------------------------------------|
G|-------------------------------------------------- 4-4-3-------------- 4-4-3--|
D|-----------4-4-4---------------4-4-4--------------1-1-1----1-1-1-1---1-1-1----|
A|-2-2-2-2---2-2-1----2-2-2-2---2-2-1----2-2-2-2--------------------------------|
E|------------------------------------------------------------------------------|
     x  x  x  x                      x  x  x  x                      x  x  x  x          
            x  x  x  x

e|-------------------------------------------------------------------------------|
B|-------------------------------------------------------------------------------|
G|----------- 3-3-1---------------3-3-1------------------------------------------|
D|-1-1-1-1---1-1-1----1-1-1-1--- 1-1-1----1-1-1-1---4-4-2---------------4-4-4----|
A|--------------------------------------------------- 2-2-2----2-2-2-2--- 2-2-2--|
E|-------------------------------------------------------------------------------|
     x  x  x  x                       x  x  x  x                       x  x  x  x        
             x  x  x  x

e|------------------------------|
B|------------------------------|
G|------------------------------|
D|-2--4--2--1--4--1-----4-------|
A|--------------------4----4----|
E|------------------------------|
     x   x    x    x    x    x    x   x   x

e|-----------------------------------------------------------------------------|
B|-----------------------------------------------------------------------------|
G|------------------------------------- 4-4-4-4--6-6-6-6--8-8-8-8--4-4-4-4-----|
D|--4-4-4-4-4-4-4-4--4-4-4-4-4-4-4-4-------------------------------------------|
A|--2-2-2-2-2-2-2-2--1-1-1-1-1-1-1-1--2-2-2-2--4-4-4-4--6-6-6-6--2-2-2-2-------|
E|-----------------------------------------------------------------------------|

e|-----------------------------------------------------------------------------|
B|-----------------------------------------------------------------------------|
G|--11111111111111111111111111111111-----9-9-9-9-9-9-9-9-9-9-9-9-9-9-9-9-------|
D|-----------------------------------------------------------------------------|
A|-- 9-9-9-9-9- 9-9-9- 9-9-9-9-9-9- 9-9-----7-7-7-7-7-7-7-7-7-7-7-7-7-7-7-7----|
E|-----------------------------------------------------------------------------|

e|-----------------------------------------------------------------------------|
B|-----------------------------------------------------------------------------|
G|------------------------------------- 4-4-4-4--6-6-6-6--8-8-8-8--4-4-4-4-----|
D|--4-4-4-4-4-4-4-4--4-4-4-4-4-4-4-4-------------------------------------------|
A|--2-2-2-2-2-2-2-2--1-1-1-1-1-1-1-1--2-2-2-2--4-4-4-4--6-6-6-6--2-2-2-2-------|
E|-----------------------------------------------------------------------------|

e|-----------------------------------------------------------------------------|
B|-----------------------------------------------------------------------------|
G|--11111111111111111111111111111111-----9-9-9-9-9-9-9-9-9-9-9-9-9-9-9-9-------|
D|-----------------------------------------------------------------------------|
A|-- 9-9-9-9-9- 9-9-9- 9-9-9-9-9-9- 9-9-----7-7-7-7-7-7-7-7-7-7-7-7-7-7-7-7----|
E|-----------------------------------------------------------------------------|

e|-----------------------------------------------------------------------------|
B|-----------------------------------------------------------------------------|
G|--11-/-9-/-8-/-6-/-9-/-8-/-6-/-8--4-4-4-4-4-4-4-4-11-11-11-11-11-11-11-11----|
D|-----------------------------------------------------------------------------|
A|-- 9-/ 7-/-6-/-4-/-7-/-6-/-4-/-6---2-2-2-2-2-2-2-2- 9--9--9- -9--9--9--9--9--|
E|-----------------------------------------------------------------------------|

e|-----------------------------------------------------------------------------|
B|-----------------------------------------------------------------------------|
G|--11-/-9-/-8-/-6-/-9-/-8-/-6-/-8--4-4-4-4-4-4-4-4-11-11-11-11-11-11-11-11----|
D|-----------------------------------------------------------------------------|
A|-- 9-/ 7-/-6-/-4-/-7-/-6-/-4-/-6---2-2-2-2-2-2-2-2- 9--9--9- -9--9--9--9--9--|
E|-----------------------------------------------------------------------------|

e|-----------------------------------------------------------------------------|
B|-----------------------------------------------------------------------------|
G|-11-11-11-11-11-11-11-11--4-4-4-4-4-4-4-4------11------9------8------6-------|
D|-----------------------------------------------------------------------------|
A|- 9--9--9--9--9--9--9-- 9-- 2-2-2-2-2-2-2-2------ 9------ 7------6------4----|
E|-----------------------------------------------------------------------------|

e|-----------------------------------------------------------------------------|
B|-----------------------------------------------------------------------------|
G|--4-4-4-4-4-4-4-4-4-4-4-4-4-4-4-4----6-6-6-6-6-6-6-6-6-6-6-6-6-6-6-6---------|
D|-----------------------------------------------------------------------------|
A|--2-2-2-2-2-2-2-2-2-2-2-2-2-2-2-2----4-4-4-4-4-4-4-4-4-4-4-4-4-4-4-4---------|
E|-----------------------------------------------------------------------------|

e|-----------------------------------------------------------------------------|
B|-----------------------------------------------------------------------------|
G|----------------------------------------4-4-4----3-3-3----4-4-4----3-3-3-----|
D|--4-4----4-4-4----4-4-4----4-4-4-------1-1-1----1-1-1----1-1-1----1-1-1------|
A|--2-2----1-1-1----2-2-2----1-1-1---------------------------------------------|
E|-----------------------------------------------------------------------------|

e|-----------------------------------------------------------------------------|
B|-----------------------------------------------------------------------------|
G|--3-3-3----1-1-1----3-3-3----1-1-1-------------------------------------------|
D|--1-1-1----1-1-1----1-1-1----1-1-1-----4-4-4----2-2-2----4-4-4----2-2-2------|
A|----------------------------------------2-2-2----2-2-2----2-2-2----2-2-2-----|
E|-----------------------------------------------------------------------------|

e|-----------------------------------------------------------------------------|
B|-----------------------------------------------------------------------------|
G|----------------------------------------4-4-4----3-3-3----4-4-4----3-3-3-----|
D|--4-4----4-4-4----4-4-4----4-4-4-------1-1-1----1-1-1----1-1-1----1-1-1------|
A|--2-2----1-1-1----2-2-2----1-1-1---------------------------------------------|
E|-----------------------------------------------------------------------------|

e|-----------------------------------------------------------------------------|
B|-----------------------------------------------------------------------------|
G|--3-3-3----1-1-1----3-3-3----1-1-1-------------------------------------------|
D|--1-1-1----1-1-1----1-1-1----1-1-1-----4-4-4----2-2-2----4-4-4----2-2-2------|
A|----------------------------------------2-2-2----2-2-2----2-2-2----2-2-2-----|
E|-----------------------------------------------------------------------------|

e|-----------------------------------------------------------------------------|
B|-----------------------------------------------------------------------------|
G|------------------------------------- 4-4-4-4--6-6-6-6--8-8-8-8--4-4-4-4-----|
D|--4-4-4-4-4-4-4-4--4-4-4-4-4-4-4-4-------------------------------------------|
A|--2-2-2-2-2-2-2-2--1-1-1-1-1-1-1-1--2-2-2-2--4-4-4-4--6-6-6-6--2-2-2-2-------|
E|-----------------------------------------------------------------------------|

e|-----------------------------------------------------------------------------|
B|-----------------------------------------------------------------------------|
G|--11111111111111111111111111111111-----9-9-9-9-9-9-9-9-9-9-9-9-9-9-9-9-------|
D|-----------------------------------------------------------------------------|
A|-- 9-9-9-9-9- 9-9-9- 9-9-9-9-9-9- 9-9-----7-7-7-7-7-7-7-7-7-7-7-7-7-7-7-7----|
E|-----------------------------------------------------------------------------|

e|-----------------------------------------------------------------------------|
B|-----------------------------------------------------------------------------|
G|------------------------------------- 4-4-4-4--6-6-6-6--8-8-8-8--4-4-4-4-----|
D|--4-4-4-4-4-4-4-4--4-4-4-4-4-4-4-4-------------------------------------------|
A|--2-2-2-2-2-2-2-2--1-1-1-1-1-1-1-1--2-2-2-2--4-4-4-4--6-6-6-6--2-2-2-2-------|
E|-----------------------------------------------------------------------------|

e|-----------------------------------------------------------------------------|
B|-----------------------------------------------------------------------------|
G|--11111111111111111111111111111111-----9-9-9-9-9-9-9-9-9-9-9-9-9-9-9-9-------|
D|-----------------------------------------------------------------------------|
A|-- 9-9-9-9-9- 9-9-9- 9-9-9-9-9-9- 9-9-----7-7-7-7-7-7-7-7-7-7-7-7-7-7-7-7----|
E|-----------------------------------------------------------------------------|

e|-----------------------------------------------------------------------------|
B|-----------------------------------------------------------------------------|
G|--11-/-9-/-8-/-6-/-9-/-8-/-6-/-8--4-4-4-4-4-4-4-4-11-11-11-11-11-11-11-11----|
D|-----------------------------------------------------------------------------|
A|-- 9-/ 7-/-6-/-4-/-7-/-6-/-4-/-6---2-2-2-2-2-2-2-2- 9--9--9- -9--9--9--9--9--|
E|-----------------------------------------------------------------------------|

e|-----------------------------------------------------------------------------|
B|-----------------------------------------------------------------------------|
G|--11-/-9-/-8-/-6-/-9-/-8-/-6-/-8--4-4-4-4-4-4-4-4-11-11-11-11-11-11-11-11----|
D|-----------------------------------------------------------------------------|
A|-- 9-/ 7-/-6-/-4-/-7-/-6-/-4-/-6---2-2-2-2-2-2-2-2- 9--9--9- -9--9--9--9--9--|
E|-----------------------------------------------------------------------------|

e|-----------------------------------------------------------------------------|
B|-----------------------------------------------------------------------------|
G|-11-11-11-11-11-11-11-11--4-4-4-4-4-4-4-4------11------9------8------6-------|
D|-----------------------------------------------------------------------------|
A|- 9--9--9--9--9--9--9-- 9-- 2-2-2-2-2-2-2-2------ 9------ 7------6------4----|
E|-----------------------------------------------------------------------------|

e|-----------------------------------------------------------------------------|
B|-----------------------------------------------------------------------------|
G|--4-4-4-4-4-4-4-4-4-4-4-4-4-4-4-4----6---------------------------6-----------|
D|-----------------------------------------------------------------------------|
A|--2-2-2-2-2-2-2-2-2-2-2-2-2-2-2-2----4---------------------------4-----------|
E|-----------------------------------------------------------------------------|

e|-----------------------------------------------------------------------------|
B|-----------------------------------------------------------------------------|
G|-----------------------------------------------------------------------------|
D|--4-4-4-4-4-4-4-4--4-4-4-4-4-4-4-4-------------------------------------------|
A|--2-2-2-2-2-2-2-2--1-1-1-1-1-1-1-1--6-6-6-6-6-6-6-6--4-4-4-4-4-4-4-4---------|
E|--------------------------------------4-4-4-4-4-4-4-4--2-2-2-2-2-2-2-2-------|
       x  x  x  x  x  x  x  x   x  x  x  x  x  x  x  x   x  x  x  x  x  x  x  x   x  x  x  x  x  x  x  x

e|-----------------------------------------------------------------------------|
B|-----------------------------------------------------------------------------|
G|-----------------------------------------------------------------------------|
D|-----------------------------------------------------------------------------|
A|---2-2-2-2-2-2-2-2-2-2-2-2-2-2-2-2----4-4-4-4-4-4-4-4-4-4-4-4-4-4-4-4--------|
E|---0-0-0-0-0-0-0-0-0-0-0-0-0-0-0-0----2-2-2-2-2-2-2-2-2-2-2-2-2-2-2-2--------|
        x  x  x  x  x  x  x  x  x  x  x  x  x  x  x  x      x  x  x  x  x  x  x  x  x  x 
x  x  x  x  x  x

e|-----------------------------------------------------------------------------|
B|-----------------------------------------------------------------------------|
G|-----------------------------------------------------------------------------|
D|--4--4--4--4--4------4--4--4--4--4------6--6--6--6--6------4--4--4--4--4-----|
A|--2--2--2--2--2------1--1--1--1--1------4--4--4--4--4------2--2--2--2--2-----|
E|-----------------------------------------------------------------------------|
       x   x    x    x                 x    x    x   x                 x   x    x    x   
             x   x    x    x

e|-----------------------------------------------------------------------------|
B|-----------------------------------------------------------------------------|
G|-----------------------------------------------------------------------------|
D|-----------------------------------------------------------------------------|
A|------2----2----2-2----------------------4----4----4-4-----------------------|
E|------0----0----0-0---------------------- 2----2----2-2----------------------|
                                x                                                                x

e|-----------------------------------------------------------------------------|
B|-----------------------------------------------------------------------------|
G|-----------------------------------------------------------------------------|
D|----------------------------------------4-4-------4-4-------4-4------4-4-----|
A|-------6-------6-------4-------4----2-2-------2-2-------2-2------2-2---------|
E|---4-4-4---4-4-4---2-2-2---2-2-2---------------------------------------------|
        x  x         x  x          x  x         x  x          x  x             x  x      
      x  x           x  x

e|-----------------------------------------------------------------------------|
B|-----------------------------------------------------------------------------|
G|-----------------------------------------------------------------------------|
D|----------------------------------------4-4-------4-4-------4-4------4-4-----|
A|-------6-------6-------4-------4----2-2-------2-2-------2-2------2-2---------|
E|---4-4-4---4-4-4---2-2-2---2-2-2---------------------------------------------|
        x  x         x  x          x  x         x  x          x  x             x  x      
      x  x           x  x

e|-----------------------------------------------------------------------------|
B|-----------------------------------------------------------------------------|
G|--11-11-11-11-11-11-11-11--9-9-9-9-9-9-9-9------11-----9------8------6-------|
D|-----------------------------------------------------------------------------|
A|--9-- 9--9--9--9--9--9--9---7-7-7-7-7-7-7-7------9------ 7------6------4-----|
E|-----------------------------------------------------------------------------|

e|-------------------------|
B|-------------------------|
G|----4--------------------|
D|-------------------------|
A|----2--------------------|
E|-------------------------|

            
            
Suggest correction
Creating personal tab
Creating personal tab
You can edit any tab online and save it as your Personal.

You can edit, replace or remove any tab part or add personal notes – all changes will be seen only by you.

Personal tabs can be accessed anytime from any device, even offline.
Learn more »
Give kudos to tab author, rate the tab!
1 2 3 4 5
comments
print report bad tab
guest
You may want to rate the tab now too:
select rating
Wanna post a correction for this tab? Suggest correction