Oops, an error
Loading. Please wait.

Fall tab

version 2
version 2

Whole song

79 views 1 this week
no commentswrite comment
1 2 3 4 5
2 more votes to show rating
add to favorites
×
Save as Personal and add changes to this tab that will be seen only by you. Learn more ›
×
You can save this tab as Personal to edit and correct it or add notes. All changes will be seen only by you. Learn more »
launch autoscroll
font size
0
reset
how to read this tab
guitar tuner
edit
Autoscroll
slow
fast
+/-
esc
set tempo
stop
Author
Difficulty
Song: Fall
Band: Something Corporate
Tuning: eADGBE
Tabbed by Brandon Bushnell


Intro/Verse:Riff1                                              
E|-----------------------------------------------------------|
B|-----------------------------------------------------------|
G|------------------------------------44-44-4444-------------|
D|22-22-2222--44-44-4444--66-66-6666--44-44-4444-Repeat 3x---|
A|22-22-2222--44-44-4444--66-66-6666--22-22-2222-------------|
e|00-00-0000--22-22-2222--44-44-4444-------------------------|


 [Lead Guitar Fill] 
E|-----------------------------------------|
B|--44444444------------1111111--44444444--|
G|------------88888888---------------------|
D|-----------------------------------------|
A|-----------------------------------------|
e|-----------------------------------------|

  [Pre-Chorus]
E|------------------------------------------|
B|--------------------------------44444444--|
G|--------------------------------44444444--|
D|--22222222--44444444--66666666--22222222--|
A|--22222222--44444444--66666666------------|
e|--00000000--22222222--44444444------------|

[Chorus]:(x2)
E|-----------------------------------------|
B|-----------------------------------------|
G|------4444-----------------4444----------|
D|-2222-4444-4444-66-44-2222-4444-44444444-|
A|-2222-2222-4444-66-44-2222-2222-44444444-|
e|-0000------2222-44-22-0000------22222222-|


E|-----------------------------------------------------------|
B|-----------------------------------------------------------|
G|------------------------------------44-44-4444-------------|
D|22-22-2222--44-44-4444--66-66-6666--44-44-4444-Repeat 4x---|
A|22-22-2222--44-44-4444--66-66-6666--22-22-2222-------------|
e|00-00-0000--22-22-2222--44-44-4444-------------------------|


 [Lead Guitar Fills]
E|-------------------------------------------|----------------------------------------------------|
B|-------------------------------------------|-----------------------------------------14p0-14p0--|
G|--3333-4444-3333-4444-3333-4444-6666-4444--|-------------h11p0--h11p0--h11p0--h11p0-------------|
D|-------------------------------------------|--11br-9v-------------------------------------------|
A|-------------------------------------------|----------------------------------------------------|
e|-------------------------------------------|----------------------------------------------------|


[Pre-Chorus]
E|------------------------------------------|
B|--------------------------------44444444--|
G|--------------------------------44444444--|
D|--22222222--44444444--66666666--22222222--|
A|--22222222--44444444--66666666------------|
e|--00000000--22222222--44444444------------|


[Chorus]:(x2)
E|-----------------------------------------|
B|-----------------------------------------|
G|------4444-----------------4444----------|
D|-2222-4444-4444-66-44-2222-4444-44444444-|
A|-2222-2222-4444-66-44-2222-2222-44444444-|
e|-0000------2222-44-22-0000------22222222-|


Interlude:(x4)
E|---------------------------|
B|---------------------------|
G|---------------------------|
D|--66666666666668-98989898--|
A|--66666666666668-98989898--|
e|--44444444444446-76767676--|
  pm.............

 [Lead Guitar Fills]
E|-------------------------------------------------------------------|
B|-------------------------------------------------------------------|
G|-------------------------------------------------------------------|
D|--11br--9-8-9-8-9-8---11br--9-8-9-8-9-8--11br--9-8-9-8-9-8--11br~--|
A|-------------------------------------------------------------------|
e|-------------------------------------------------------------------|


[Chorus]:(x2)
E|-----------------------------------------|
B|-----------------------------------------|
G|------4444-----------------4444----------|
D|-2222-4444-4444-66-44-2222-4444-44444444-|
A|-2222-2222-4444-66-44-2222-2222-44444444-|
e|-0000------2222-44-22-0000------22222222-|

 
[Lead Guitar] 
E|-----------------------------------------------------------------|
B|-----------------------------------------------------------------|
G|--4444--6666--8888--8--9--6~---4--6--4444--6666--8888--8--9--6~--|
D|--xxxx--xxxx--xxxx--x--x--x----x--x--xxxx--xxxx--xxxx--x--x--x---|
A|--2222--4444--6666--6--7--4~---2--4--2222--4444--6666--6--7--4~--|
e|-----------------------------------------------------------------|


End on:
E|---------|
B|---------|
G|---------|
D|--22-----|
A|--22-----|
e|--00-----|



[X] = Mute String
[~] = Let Ring
[V] = Vibrato
[/] = Slide
[P] = Pull off
[H] = Hammer on
[BR] = Bend/Release
[PM] = Palm Mute


"Fall"

I close my eyes
Thought i was lost but i was stranded
I go outside
To my surprise the sky had landed
I thought it made more sense
If i could only keep you guessing
I was a fool to think that i should stop you from undressing
Now i'm believing all the words you say
That i can't say back to you
But so you can

So i fall
I don't wanna feel this small
You know i just can't handle this
Handle this at all
And i'll just fall
I'll let my heartbeat drop
I falter as the music stops
And you watch me as stall
And wonder when i fall

I kiss your neck
I feel you breathing on my shoulder
Still i'm perfect
It must be you cause now it's over
I was so close
That was the most that i have ever been through
Now old cassettes and cigarettes
Will be the ones to save you
How can you ask for me to stay
When all you ever do is go?
Just go

And so i fall
I don't wanna feel this small
You know i just can't handle this
Handle this at all
And so i fall
I let my heartbeat drop
I falter as the music stops
And you watch me as i stall
And wonder when i..

Go on
You can't be waiting
Go on
And watch me as i fall

I don't wanna feel this small
You know i just can't handle this
Handle this at all
And so i'll fall
I'll let my heartbeat drop
I falter as the music stops
And you watch me as stall
And wonder when i..

            
            
Suggest correction
Creating personal tab
Creating personal tab
You can edit any tab online and save it as your Personal.

You can edit, replace or remove any tab part or add personal notes – all changes will be seen only by you.

Personal tabs can be accessed anytime from any device, even offline.
Learn more »
Give kudos to tab author, rate the tab!
1 2 3 4 5
comments
print report bad tab
guest
You may want to rate the tab now too:
select rating
Wanna post a correction for this tab? Suggest correction